Gitarizm

» Тексты и аккорды к песням для гитары » Zornik - The demons you have liked (аккорды)

Гитаризм

Конкурс на лучший кавер
Здесь могла бы быть Ваша реклама!
Хотите узнать как играть на гитаре? Гитаризм — лучший самоучитель гитары для начинающих!

Zornik - The demons you have liked (аккорды)




Date: Sat, 31 Aug 2002 14:28:45 +0000
From: harry pothead 
Subject: z/zornik/the_demons_you_have_liked.crd

Song: Demons That You Liked
Band: Zornik
Tuning: Standard
Tabbed By [email protected]
Intro
e|-0-0-----------------------------------|
B|-0-0-----1-1-1-1-----------------------|
G|-0-0-----0-0-0-0-----------------------|
D|-2-2-x-x-2-2-2-2-----------------------|
A|-2-2-x-x-3-3-3-3-----------------------|
E|-0-0-----------------------------------|
After 3 times play
e|-------------------------------------|
B|-------------------------------------|
G|-------------------------------------|
D|-5-5-4-4-4---------------------------|
A|-5-5-4-4-4---------------------------|
E|-3-3-2-2-2---------------------------|
There's no Guitar in the verse only on the end he plays
e|-0-----------0------0----------------|
B|-0--0--0---0--0---0--0---------------|
G|-2--4--5--3-3--3-3-3--3--------------|
D|-2--5--5-----------------------------|
A|-0--3--3-----------------------------|
E|-------------------------------------|
Chorus
e|---------------------------------------------------------------|
B|-3-3-3-3-3-3-3-3-3-3-3-3-3-3-3---------------------------------|
G|-0-0-0-0-0-0-0-0-0-0-0-0-0-0-0-4-4-4-4-4-4-4-4-5-5-5-5-5-5-5-5-|
D|-2-2-2-2-2-2-2-2-0-0-0-0-0-0-0-5-5-5-5-5-5-5-5-5-5-5-5-5-5-5-5-|
A|-3-3-3-3-3-3-3-3-2-2-2-2-2-2-2-5-5-5-5-5-5-5-5-3-3-3-3-3-3-3-3-|
E|-----------------3-3-3-3-3-3-3-3-3-3-3-3-3-3-3-----------------|
For the bridge do a little creative picking of the chorus chords


Автор: muzzon