Gitarizm

Гитаризм

Конкурс на лучший кавер
Здесь могла бы быть Ваша реклама!
Хотите узнать как играть на гитаре? Гитаризм — лучший самоучитель гитары для начинающих!

Zornik - 4 Million Minutes


-----------------------------------------------------------------------------
                           4 Million Minutes - Zornik
-----------------------------------------------------------------------------
Tabbed by:Joleinkonijn


First chords I've found myself :-)
I think they're close to accurate.
Nice song, easy to play, repeat the whole song:

        A        E        C#m          D
e|-------------------------4-----------2------------|
B|------2------------------4-5---------3------------|
G|------2--------1---------4-6---------2------------|
D|------2--------2---------4-6----------------------|
A|---------------2---------4------------------------|
E|-------------------------4------------------------|

Intro: A  E  C#m  D

       A                       E
One second in time can seem eternal in life
           C#m        D
When you dwell on it
                A     
And then you reach the mirror
           E                       C#m       D       
Let
Автор: muzzon