Gitarizm

» Тексты и аккорды к песням для гитары » Zorn John - Khebar (табулатура)

Гитаризм

Конкурс на лучший кавер
Здесь могла бы быть Ваша реклама!
Хотите узнать как играть на гитаре? Гитаризм — лучший самоучитель гитары для начинающих!

Zorn John - Khebar (табулатура)




Date: Mon, 29 Jul 2002 11:34:10 -0400 (EDT)
Subject: z/zorn_john/khebar.tab
From: Evan Chase 

Khebar   -   John Zorn

Tabbed By Evan Chase ([email protected])
This file is all my own work.

 A
 |(measure lines) |       |               |   |     |
|----------------------------------------------------------|
|---------3-4-3---3-----3-4-3-----------------------4-3----|
|---2-3-5-------5-------------5-3-5-3-2-----2-2h3h5-----5--|
|-5-------------------------------------5-4----------------|
|----------------------------------------------------------|
|----------------------------------------------------------|

            B
              |               |               |
|-----------2-3-1------------------------------------------|
|-3h4p3-----------4-3--------------------------------------|
|---------------------5-3-2---2-3-5-3-2-----2--------------|
|---------------------------5-----------5-4---5-4-1-0------|
|-----------------------------------------------------3-1--|
|----------------------------------------------------------|

             B'
      |
|--------------2-3-1---------------------------------------|
|--------------------4-3-----------------------------------|
|------------------------5-3-2---2-3-5-3-2-----------------|
|------------------------------5-----------5-4-1-0---0-1-4-|
|-0---3/5------------------------------------------3-------|
|---3------------------------------------------------------|

                        C
|----------------------------------------------------------|
|---------3------------------------------------------------|
|---2h3-------2h3-----------2-3-5-3-2-5-3-2----------------|
|-5-----5---5-----5-----4-5-----------------5-4-5----------|
|----------------------------------------------------------|
|----------------------------------------------------------|


|----------------------------------------------------------|
|---------3-----4---2-------3-4-3---3h4p3------------------|
|---2-3-5---5-3---5-------5-------5-------5-2-3-5-3-2------|
|-5--------------------------------------------------------|
|----------------------------------------------------------|
|----------------------------------------------------------|


|----------------------------------------------------------|
|----------------------------------------------------------|
|-2h3p2-------3--------------------------------------------|
|-------5-4-5---5-4-1-0------------------------------------|
|-----------------------3/5--------------------------------|
|----------------------------------------------------------|

Goes A B A B' C (Rep)

some of these parts are played on a picked string instrument,
and some on the violin, none are actually for guitar but this
is the basic idea of the song for it.  Solos on various
instruments are played over the chord progression, which I have
yet to figure out.  If anyone does, please let me know.


Автор: muzzon