Gitarizm

Гитаризм

Конкурс на лучший кавер
Здесь могла бы быть Ваша реклама!
Хотите узнать как играть на гитаре? Гитаризм — лучший самоучитель гитары для начинающих!

Zona Iskljucenja - Ljubav (табулатура)


_U_v_o_d_:

  A5 F5 E5 B5

  A5 E5 F5 G5 -4x

_S_t_r_o_f_a_:

Keyboard:
e-----------------------------|
H-----------------------------|
G-----9-7---------------------|
D--7------10-9-7--------------|
A----------------10-8---7-----|
E-----------------------------|

Gitara i bass:
e---------------------------------------|
H---------------------------------------|
G---------------------------------------|
D---------------------------------------|
A-------------3-3-2-2-----5-5-3---------|
E-5-5-0-0-1-1---------3-3-------3-5-5---|

_P_r_e_l_a_z_:
e-----------------------------|
H-----------------------------|
G-----------------------------|
D-------------------------3---|
A-7-7---7-7-8-5--7--3--2--1---|
E-5-5---5-5-6-3--5--1--0------|

Strofa
Vise se ne molim za tebe
                       A5 E5 F5 G5 | A5 E5 F5 G5
i tvoj lik lagano nestaje
strofa
ne prepoznajem ti korake
                         prelaz
Dok sve u meni lagano umire

Ref:
A5                F5      G5
Ljubav, prejak je osjecaj boli
   A5        B5 C5 B5 A5 G5 F5 E5
za mene vise vremena  nema
    A5           F5     G5
jos jednom ti mi usne poljubi
   A5            B5
na put se ja bez povratka spremam


ono nesto na basu(ovako nekako ide):
G-----------------------------7r6--6------|
D-8--7--5--7--5-3-2--2-3-2-5-----8---8-7--|
A-----------------------------------------|
E-----------------------------------------|

A5 E5 F5 G5 -4x

Strofa:
U pjesku trag u tragu bijes
ruke se zaplicu u grijeh
ne prepoznajes svijet okamenjen je
dok ruke jos za milost mole te

Ref:
ljubav prejak je...

Ono nesto na basu uz male varijacije pa onda

Solo (instrumentalni dio,kako hocete):
citav je u E.

Ref:
ljubav prejak je...

zavrsni ref:
Dodji i uzmi mi dusu
neka samnom zavlada glad
sutra mozda bude vec kasno
jer ovo je moj posljednji dan

_k_r_a_j_: A5 F5 E5 B5
Автор: muzzon