Gitarizm

» Тексты и аккорды к песням для гитары » Zombies - Time Of The Season bass (табулатура)

Гитаризм

Конкурс на лучший кавер
Здесь могла бы быть Ваша реклама!
Хотите узнать как играть на гитаре? Гитаризм — лучший самоучитель гитары для начинающих!

Zombies - Time Of The Season bass (табулатура)


This is the main part(and the intro):
-----------|
---0-2-2---|
-2---------|
-----------|

Then when the change to C comes along, you do this:
-----------------|
-2-0-------0-2-2-|
-----3-3-3-------|
-----------------|

At the chorus:
-0-0-0-----------0-0-0-----------2-4-|
-------0-2-2-2---------0-2-2-2-------|
---------------2---------------3-----|
-------------------------------------|

That's the main gist of the song, very easy, but Gr00vy!  Yeah baby!
This will leave you prepared for the choruses and verses.
I have yet to do the rest of the song.  I'll get to it sometime.
Автор: muzzon