Gitarizm

Гитаризм

Конкурс на лучший кавер
Здесь могла бы быть Ваша реклама!
Хотите узнать как играть на гитаре? Гитаризм — лучший самоучитель гитары для начинающих!

Zombies - Shes not there (бас)




Date: Thu, 4 Jul 2002 07:29:40 +0200 (CEST)
From: =iso-8859-1qJan=20Bj=F6rklund= 
Subject: z/zombies/shes_not_there.btab

Zombies-She's_Not_There.btab

Basstab by Jan Bjorklund, Finland; 
[email protected] 
You are welcome to request for basstabs 
Bienvenidos a pedirme transcripciones para el bajo 
Fingering and positions as suggested by TablEdit. 

TablEdited by Jan Bjorklund
Tuning : E A D G 	Time Signature: 4/4

  |       |       |       |          |       |       |       |         
|-----------------------------2----|----------------------------------|
|----------------------------------|---------2-------0---4---2--------|
|----------------------------------|-0-----------0--------------------|
|----------------------------------|----------------------------------|

  |       |       |       |          |       |       |       |         
|----------------------------------|----------------------------------|
|---------2-------0---4---2--------|---------2-------0---4---2--------|
|-0-----------0--------------------|-0-----------0--------------------|
|----------------------------------|----------------------------------|

  |       |       |       |          |       |       |       |         
|----------------------------------|----------------------------------|
|---------2-------0---4---2--------|---------2-------0---4---2--------|
|-0-----------0--------------------|-0-----------0--------------------|
|----------------------------------|----------------------------------|

  |       |       |       |          |       |       |       |         
|----------------------------------|----------------------------------|
|---------2-------0---4---2--------|-------------2---3-------2--------|
|-0-----------0--------------------|-0-------3------------------------|
|----------------------------------|----------------------------------|

  |       |       |       |          |       |       |       |         
|----------------------------------|----------------------------------|
|---------2-------0---4---2--------|---------2-------0---4---2--------|
|-0-----------0--------------------|-0-----------0--------------------|
|----------------------------------|----------------------------------|

  |       |       |       |          |       |       |       |         
|----------------------------------|----------------------------------|
|---------2-------0---4---2--------|-------------2---2----------------|
|-0-----------0--------------------|-0-------3------------------------|
|----------------------------------|----------------------------------|

  |       |       |       |          |       |       |       |         
|----------------------------------|----------------------------------|
|---------2-------0---4---2--------|-4-----------4---3-----------3----|
|-0-----------0--------------------|----------------------------------|
|----------------------------------|----------------------------------|

  |       |       |       |          |       |       |       |         
|----------------------------------|----------------------------------|
|-----------------2----------------|-2-----------2-----------2--------|
|-0-----------3-----------3--------|-----------------2-----------2----|
|----------------------------------|----------------------------------|

  |       |       |       |          |       |       |       |         
|----------------------------------|----------------------------------|
|-----------------2-----------2----|-4---------4-----3-----------2----|
|-0-----------3-----------3--------|----------------------------------|
|----------------------------------|----------------------------------|

  |       |       |       |          |       |       |       |         
|----------------------------------|----------------------------------|
|-----------------------------2----|----------------------------------|
|-3-----------3---3----------------|----------------------------------|
|----------------------------------|-0---0---0---0---0---0---0---0----|

  |       |       |       |          |       |       |       |         
|----------------------------------|-----------------------------5----|
|----------------------------------|-------------------------2/-------|
|----------------------------------|-----------------5---5------------|
|-0---0---0---0---0---0---0---0----|-5---5---5---5--------------------|

  |       |       |       |          |       |       |       |         
|----------------------------------|---------2------------------------|
|-----------------3---3---3---3----|-----------------0---0---0---4----|
|-0---0---0---0--------------------|-0---0-------0--------------------|
|----------------------------------|----------------------------------|

  |       |       |       |          |       |       |       |         
|---------2------------------------|----------------------------------|
|-----------------3---3---3---3----|-----------------0---0---4---4----|
|-0---0-------0--------------------|-0---0---0---0--------------------|
|----------------------------------|----------------------------------|

  |       |       |       |          |       |       |       |         
|----------------------------------|----------------------------------|
|----------------------------------|-------------2---0-------2--------|
|-0---0---0---0---0---0---0---0----|-0---0---3-----------3-------3----|
|----------------------------------|----------------------------------|

  |       |       |       |          |       |       |       |         
|----------------------------------|----------------------------------|
|---------2-------0---4---2--------|---------2-------0---4---2--------|
|-0-----------0--------------------|-0-----------0--------------------|
|----------------------------------|----------------------------------|

  |       |       |       |          |       |       |       |         
|----------------------------------|----------------------------------|
|---------2-------0---4---2--------|---------2-------0---4---2---4----|
|-0-----------0--------------------|-0-----------0--------------------|
|----------------------------------|----------------------------------|

  |       |       |       |          |       |       |       |         
|----------------------------------|----------------------------------|
|---------2-------0---4---2--------|---------2-------0---4---2--------|
|-0-----------0--------------------|-0-----------0--------------------|
|----------------------------------|----------------------------------|

  |       |       |       |          |       |       |       |         
|----------------------------------|----------------------------------|
|-------------2---3---3---2---2----|---------2-------0---4---2--------|
|-0-------3------------------------|-0-----------0--------------------|
|----------------------------------|----------------------------------|

  |       |       |       |          |       |       |       |         
|----------------------------------|----------------------------------|
|---------2-------0---4---2--------|---------2-------0---4---2--------|
|-0-----------0--------------------|-0-----------0--------------------|
|----------------------------------|----------------------------------|

  |       |       |       |          |       |       |       |         
|----------------------------------|----------------------------------|
|-------------2---3---3---2---2----|---------2-------0---4---2--------|
|-0-------3------------------------|-0-----------0--------------------|
|----------------------------------|----------------------------------|

  |       |       |       |          |       |       |       |         
|----------------------------------|----------------------------------|
|-4-----------4---3-----------3----|-----------------2----------------|
|----------------------------------|-0-----------3-----------3--------|
|----------------------------------|----------------------------------|

  |       |       |       |          |       |       |       |         
|----------------------------------|----------------------------------|
|-2-----------2-----------2--------|-----------------2-----------2----|
|-----------------2-----------2----|-0-----------3-----------3--------|
|----------------------------------|----------------------------------|

  |       |       |       |          |       |       |       |         
|----------------------------------|----------------------------------|
|-4---------4-----3-----------2----|-----------------------------2----|
|----------------------------------|-3-----------3---3----------------|
|----------------------------------|----------------------------------|

  |       |       |       |          |       |       |       |         
|----------------------------------|----------------------------------|
|----------------------------------|----------------------------------|
|----------------------------------|----------------------------------|
|-0---0---0---0---0---0---0---0----|-0---0---0---0---0---0---0---0----|

  |       |       |       |          |       |       |       |         
|-----------------------------5----|----------------------------------|
|-------------------------2/-------|-----------------3---3---3---2----|
|-----------------5---5------------|-0---0---0---0--------------------|
|-5---5---5---5--------------------|----------------------------------|

  |       |       |       |          |       |       |       |         
|---------2------------------------|---------2------------------------|
|-----------------0---0---0---4----|-----------------3---3---3---3----|
|-0---0-------0--------------------|-0---0-------0--------------------|
|----------------------------------|----------------------------------|

  |       |       |       |          |       |       |       |         
|----------------------------------|----------------------------------|
|-----------------0---0---4---4----|----------------------------------|
|-0---0---0---0--------------------|-0---0---0---0---0---0---0---0----|
|----------------------------------|----------------------------------|

  |       |       |       |          |       |       |       |         
|----------------------------------|----------------------------------|
|----------------------------------|---------2-------0---4---2--------|
|-0--------------------------------|-0-----------0--------------------|
|----------------------------------|----------------------------------|

  |       |       |       |          |       |       |       |         
|----------------------------------|----------------------------------|
|---------2-------0---4---2--------|---------2-------0---4---2--------|
|-0---0-------0--------------------|-0-----------0--------------------|
|----------------------------------|----------------------------------|

  |       |       |       |          |       |       |       |         
|----------------------------------|----------------------------------|
|---------2-------0---4---2--------|---------2-------0---4---2--------|
|-0-----------0--------------------|-0-----------0--------------------|
|----------------------------------|----------------------------------|

  |       |       |       |          |       |       |       |         
|----------------------------------|----------------------------------|
|---------2-------0---4---2--------|---------2-------0---4---2--------|
|-0-----------0--------------------|-0-----------0--------------------|
|----------------------------------|----------------------------------|

  |       |       |       |          |       |       |       |         
|-----2----------------------------|----------------------------------|
|----------------------------------|----------------------------------|
|-0-------0---0---0---0---0---0----|-0---0---0---0---0---0---0---0----|
|----------------------------------|----------------------------------|

  |       |       |       |          |       |       |       |         
|----------------------------------|----------------------------------|
|-4-----------4---3-----------3----|-----------------2----------------|
|----------------------------------|-0-----------3-----------3--------|
|----------------------------------|----------------------------------|

  |       |       |       |          |       |       |       |         
|----------------------------------|----------------------------------|
|-2-----------2-----------2--------|-----------------2-----------2----|
|-----------------2-----------2----|-0-----------3-----------3--------|
|----------------------------------|----------------------------------|

  |       |       |       |          |       |       |       |         
|----------------------------------|----------------------------------|
|-4---------4-----3-----------2----|-------------------------0---1----|
|----------------------------------|-3-----------3---3----------------|
|----------------------------------|----------------------------------|

  |       |       |       |          |       |       |       |         
|----------------------------------|----------------------------------|
|-2--------------------------------|----------------------------------|
|----------------------------------|----------------------------------|
|-0---0---0---0---0---0---0---0----|-0---0---0---0---0---0---0---0----|

  |       |       |       |          |       |       |       |         
|-----------------------------5----|----------------------------------|
|-------------------------2/-------|-----------------3---3---3---3----|
|-------------3---5---5------------|-0---0---0---0--------------------|
|-5---5---5------------------------|----------------------------------|

  |       |       |       |          |       |       |       |         
|---------2------------------------|---------2------------------------|
|-----------------0---0---4---2----|-----------------3---3---3---3----|
|-0---0-------0--------------------|-0---0-------0--------------------|
|----------------------------------|----------------------------------|

  |       |       |       |          |       |       |       |         
|----------------------------------|----------------------------------|
|-----------------0---0---4---4----|----------------------------------|
|-0---0---0---0--------------------|-0---0---0---0---0---0---0---0----|
|----------------------------------|----------------------------------|

  |       |       |       |         
|----------------------------------|
|----------------------------------|
|-0--------------------------------|
|----------------------------------|


Created with TablEdit http://www.tabledit.com/


Автор: muzzon