Gitarizm

» Тексты и аккорды к песням для гитары » Zombies - I want her she wants me (бас)

Гитаризм

Конкурс на лучший кавер
Здесь могла бы быть Ваша реклама!
Хотите узнать как играть на гитаре? Гитаризм — лучший самоучитель гитары для начинающих!

Zombies - I want her she wants me (бас)




Date: Sat, 2 Nov 2002 11:09:34 +0100 (CET)
From: Jan Bjцrklund 
Subject: z/zombies/I_want_her_she_wants_me.btab


Zombies  I_want_her_she_wants_me.btab

Basstab by Jan Bjorklund, Finland;
[email protected]
You are welcome to request for basstabs 
Bienvenidos a pedirme transcripciones para el bajo 

Fingering and positions as suggested by TablEdit.

TablEdited by Jan Bjorklund for Marina
Tuning : E A D G Time Signature: 4/4



 |       |       |       |        |       |       |       |        
|--------------------------------|--------------------------------|
|------------------------------4h|5-------5-----4h5-------5-----4h|
|--------------------------------|--------------------------------|
|--------------------------------|--------------------------------|

 |       |       |       |        |       |       |       |        
|--------------------------------|--------------------------------|
|5-------5-----------------------|5-------5-----4h5-------5-----4h|
|--------------------------------|--------------------------------|
|--------------------------------|--------------------------------|

 |       |       |       |        |       |       |       |        
|--------------------------------|--------------------------------|
|5-------5-----------------------|5-------5-----4h5-------5-----4h|
|--------------------------------|--------------------------------|
|--------------------------------|--------------------------------|

 |       |       |       |        |       |       |       |        
|--------------------------------|--------------------------------|
|5-------5-----------------------|5-------5-----4h5-------5-----4h|
|--------------------------------|--------------------------------|
|--------------------------------|--------------------------------|

 |       |       |       |        |       |       |       |        
|--------------------------------|--------------------------------|
|5-------5-----------------------|--------5---------------5-------|
|--------------------------------|5---------------5-------------5-|
|--------------------------------|--------------------------------|

 |       |       |       |        |       |       |       |        
|--------------------------------|--------------------------------|
|--------------------------------|--------------------------------|
|9-------9-----------------------|7-------7-------7-------7-------|
|----------------7-------7-------|--------------7---------------7-|

 |       |       |       |        |       |       |       |        
|--------------------------------|--------------------------------|
|--------------------------------|--------------------------------|
|7-------7-------7-------7-------|----------------7-------7-------|
|--------------7---------------7-|--------------------------------|

 |       |       |       |        |       |       |       |        
|------------------------------7-|--------------------------------|
|----------------------7-9-------|------------9-------------------|
|5-------------------------------|----------------10--------------|
|--------------------------------|--------------------------------|

 |       |       |       |        |       |       |       |        
|------------------------11------|1112----------------------------|
|--------------------10----------|--------------------------------|
|9-------------------------------|--------10------9-------9-------|
|--------------------------------|--------------------------------|

 |       |       |       |        |       |       |       |        
|--------------------------------|--------------------------------|
|--------------------------------|5-------5-----4/5-------5-------|
|7-------7-------5-------5h6p7---|--------------------------------|
|--------------------------------|--------------------------------|

 |       |       |       |        |       |       |       |        
|--------------------------------|--------------------------------|
|5-------5---------------------4-|5-------5---------------5-------|
|------------5-----------5-------|----------------5-------------5-|
|--------------------------------|--------------------------------|

 |       |       |       |        |       |       |       |        
|--------------------------------|--------------------------------|
|4-------4-----------------------|2-------2-------2-------2-------|
|----------------2-----2-2-----2-|--------------2-----------------|
|--------------------------------|--------------------------------|

 |       |       |       |        |       |       |       |        
|--------------------------------|--------------------------------|
|2-------2-------2-------2-------|2---------------2-------2-------|
|--------------------------------|----------------------2---------|
|--------------------------------|--------------------------------|

 |       |       |       |        |       |       |       |        
|------------------------------7-|--------------------------------|
|----------------------7-9-------|------------9-------------------|
|5-------------------------------|----------------10--------------|
|--------------------------------|--------------------------------|

 |       |       |       |        |       |       |       |        
|------------------------11------|1112----------------------------|
|--------------------10----------|--------------------------------|
|9-------------------------------|--------10------9-------9-------|
|--------------------------------|--------------------------------|

 |       |       |       |        |       |       |       |        
|--------------------------------|--------------------------------|
|--------------------------------|5-------5-----4/5---------------|
|7-------7-------5-------5h6p7---|--------------------------------|
|--------------------------------|--------------------------------|

 |       |       |       |        |       |       |       |        
|--------------------------------|--------------------------------|
|5-------5-------5-3-------------|5-------5-------5-------5-------|
|--------------------5-----------|--------------------------------|
|------------------------6-----6-|--------------------------------|

 |       |       |       |        |       |       |       |        
|--------------------------------|--------------------------------|
|3-------3-------3-------3-------|--------------------------------|
|--------------------------------|6-----------5-------------------|
|--------------------------------|--------------------------------|

 |       |       |       |        |       |       |       |        
|--------------------------------|--------------------------------|
|--------------------------------|5-------5-------4h5-----5-------|
|3-----------2-------------------|--------------------------------|
|--------------------------------|--------------------------------|

 |       |       |       |        |       |       |       |        
|--------------------------------|--------------------------------|
|3-------3-------3-------3-------|1-------1---------------1-------|
|--------------------------------|----------------1-----1---------|
|--------------------------------|--------------------------------|

 |       |       |       |        |       |       |       |        
|--------------------------------|--------------------------------|
|0-------------------------------|5-------5---------------5-------|
|--------3-------2-------0-------|----------------5-------------5-|
|--------------------------------|--------------------------------|

 |       |       |       |        |       |       |       |        
|--------------------------------|--------------------------------|
|4-------4-----------------------|2-------2-------2-------2-------|
|----------------2-------2-----2-|--------------2---------------2-|
|--------------------------------|--------------------------------|

 |       |       |       |        |       |       |       |        
|--------------------------------|--------------------------------|
|2-------2-------2-------2-------|2-------2-------2-------2-------|
|--------------2---------------2-|----------------------2---------|
|--------------------------------|--------------------------------|

 |       |       |       |        |       |       |       |        
|------------------------------7-|--------------------------------|
|----------------------7-9-------|------------9-------------------|
|5-------------------------------|----------------10--------------|
|--------------------------------|--------------------------------|

 |       |       |       |        |       |       |       |        
|------------------------11------|1112----------------------------|
|--------------------10----------|--------------------------------|
|9-------------------------------|--------10------9-------9-------|
|--------------------------------|--------------------------------|

 |       |       |       |        |       |       |       |        
|--------------------------------|--------------------------------|
|--------------------------------|5-------5-------4h5-----5-------|
|7-------7-------5-------5h6p7---|--------------------------------|
|--------------------------------|--------------------------------|

 |       |       |       |        |       |       |       |        
|--------------------------------|--------------------------------|
|5-------5-------5-3-------------|5-------5-------5-------5-------|
|--------------------5-----------|--------------------------------|
|------------------------6-6-3---|--------------------------------|

 |       |       |       |        |       |       |       |        
|--------------------------------|--------------------------------|
|3-------3-------3-------3-------|--------------------------------|
|--------------------------------|6-----------5-------------------|
|--------------------------------|--------------------------------|

 |       |       |       |        |       |       |       |        
|--------------------------------|--------------------------------|
|--------------------------------|5-------5-------5-------5-------|
|3-----------2-------------------|--------------------------------|
|--------------------------------|--------------------------------|

 |       |       |       |        |       |       |       |        
|--------------------------------|--------------------------------|
|3-------3-------3-------3-------|1-------1---------------1-------|
|--------------------------------|----------------1---------------|
|--------------------------------|--------------------------------|

 |       |       |       |        |       |       |       |        
|--------------------------------|--------------------------------|
|0-------------------------------|--------------------------------|
|--------3-------2-------0-------|--and so on I think------------|
|--------------------------------|--------------------------------|


Created with TablEdit http://www.tabledit.com/


Автор: muzzon