Gitarizm

Гитаризм

Конкурс на лучший кавер
Здесь могла бы быть Ваша реклама!
Хотите узнать как играть на гитаре? Гитаризм — лучший самоучитель гитары для начинающих!

Zombie Rob - Living Dead Girl


e||---------------------------------------------------------------- 
B||---------------------------------------------------------------- 
G||---------------------------------------------------------------- 
D||4-4----3----2------4-4----3----2------4-4----3----2------------- 
A||4-4----3----2------4-4----3----2------4-4----3----2------------- 
E||2-2----1----0------2-2----2----0------2-2----1----0------------- 
 
 
e|--------------||-------------------------------------------------|| 
B|--------------||-------------------------------------------------|| 
G|--------------||-------------------------------------------------|| 
D|--------------||----------4----------4----------4----------4-----|| 
A|-3-39-9-9--||----------4----------4----------4----------4-----|| 
E|--------------||----------2----------2----------2----------2-----|| 
	        repeat        listen to the cd to find out where to play this part 
 
 
 
e|--------|| 
B|--------|| 
G|--------|| 
D|--------|| 
A|---48|| 
E|--------|| 
  play once than back to start
Автор: muzzon