Gitarizm

Гитаризм

Конкурс на лучший кавер
Здесь могла бы быть Ваша реклама!
Хотите узнать как играть на гитаре? Гитаризм — лучший самоучитель гитары для начинающих!

Zombie Rob - Feel So Numb


Tab by Edin
Email xcrazywhiteboyxx@aol.com

This is an easy song anyone can play. I tabbed it myself except for the solo my
friend did it and he seas I can use it so tanks to David. It’s a very easy song
so enjoy.

Tuning Drop D, d, a, d, g, b, e


Part1:
E|-----------------|
B|-----------------|
G|-----------------|
D|-0-10-8-10-8-10--|
A|-0-10-8-10-8-10--|
E|-0-10-8-10-8-10--|

Part2:
E|---------|    |---------|
B|---------|    |---------|
G|---------|    |---------|
D|-6-6-6-8-| or |-0-6-6-8-|
A|-6-6-6-8-|    |-0-6-6-8-|
D|-6-6-6-8-|    |-0-6-6-8-|

Solo:

This solo is repeated 

E|-8-8-8br9—8-8-8br9-8-8-8br9----------|
B|-------------------------------------|
G|-----------------------------11-10-8-|
D|-------------------------------------|
A|-------------------------------------|
D|-------------------------------------|


E|-----------------------|
B|-----------------------|
G|-----------------------|
D|--------10-8----8-10---|
Автор: muzzon