Gitarizm

» Тексты и аккорды к песням для гитары » Zombie Nation - Kernkraft 400 (табулатура)

Гитаризм

Конкурс на лучший кавер
Здесь могла бы быть Ваша реклама!
Хотите узнать как играть на гитаре? Гитаризм — лучший самоучитель гитары для начинающих!

Zombie Nation - Kernkraft 400 (табулатура)


e|-------------------------------------------------------------------------|
B|----------------7------------------------7-8-7-------------------7-------|
G|----------7--9---------------------7--9--------7-9-------9--7------------|
D|------9-------------9-----9-----9-----------------------------------9----|
A|---------------------------------------------------7----------9----------|
E|---7-------------------7-----7------------------------0------------------|



e|---------|
B|---------|
G|---------|   x 4
D|-----9---|
A|---------|
E|--7------|


Автор: muzzon