Gitarizm

» Тексты и аккорды к песням для гитары » Zoe - Via Lactea bass (табулатура)

Гитаризм

Конкурс на лучший кавер
Здесь могла бы быть Ваша реклама!
Хотите узнать как играть на гитаре? Гитаризм — лучший самоучитель гитары для начинающих!

Zoe - Via Lactea bass (табулатура)


INTRO

G|--------------------------------------------------|
D|---------------------------7-7-5-7----------------|     x4
A|-7-7-9-9-10-10-9-9--------------------------------|
E|-------------------8-8-7-8---------8-8-7-8--------|


   VERSO

G|--------------------------------------------------|
D|---------------------------7-7-5-7----------------|     x3
A|-7-7-9-9-10-10-9-9--------------------------------|
E|-------------------8-8-7-8---------8-8-7-8--------|

G|--------------------------------------------------|
D|---------------------------7-7-5-7----------------|
A|-7-7-9-9-10-10-9-9--------------------------------|
E|-------------------8-8-7-8-----------0-3-0--------|


   PRECORO

G|--------------------------------------------------|
D|--------------------------------------------------|
A|-3-33-33/5-5-55-55/2-2-22-22/3-3-33-33------------|
E|--------------------------------------------------|

G|--------------------------------------------------|
D|--------------------------------------------------|
A|-0-0-00-00/3-3-33-33------------------------------|
E|--------------------3-33-33-3-33-33---------------|


   CORO

G|--------------------------------------------------|
D|--------------------------------------------------|
A|--------------------------------------------------|
E|-8888888888/3333333333/8888888888/3333333333/-----|

G|--------------------------------------------------|
D|--------------------------------------------------|
A|----------------------3333355555------------------|
E|-8888888888/3333333333----------0~----------------|


   INTRO     x2

   VERSO

   PRECORO

   CORO

   INTRO     x2

   PUENTE Y SOLO

G|-------------------------------------------------------|
D|-------------------------------------------------------|     x2
A|-3~---5~---2~---3~---0~---3~---------------------------|
E|-------------------------------3~----------------------|


   CORO

G|-------------------------------------------------------|
D|-------------------------------------------------------|
A|-------------------------------------------------------|
E|-8888888888/3333333333/8888888888/3333333333/----------|

G|------------------------------------------------------------|
D|------------------------------------------------------------|
A|---------------------------------------------3333355555-----|
E|-8888888888/3333333333/8888888888/33333333333----------0~-0-|
Автор: muzzon