Gitarizm

» Тексты и аккорды к песням для гитары » Zoe - Morning Watts (табулатура)

Гитаризм

Конкурс на лучший кавер
Здесь могла бы быть Ваша реклама!
Хотите узнать как играть на гитаре? Гитаризм — лучший самоучитель гитары для начинающих!

Zoe - Morning Watts (табулатура)


Artist: Zoe
Song: Morning Watts
CD: The Room EP

ALL SONG IT'S ACOUSTIC!

verse:
e|-------------------------------------------------|
B|-------------------------------------------------|
G|--------0-----------0-----------0-----------0----|
D|-----7-----7-----7-----7-----7-----7-----7-----7-|
A|--5-----------5-----------5-----------5----------|
E|-------------------------------------------------|

it continues:
e|----------------------------------------------|
B|----------------------------------------------|
G|--------0-----------0-----------0-----------0-|
D|-----7-----7-----7-----7-----7-----7-----7----|
A|--3-----------3-----------3-----------3-------|
E|----------------------------------------------|

and continues:
e|-------------------------------------------------|
B|-------------------------------------------------|
G|--------0-----------0-----------0-----------0----|
D|-----4-----4-----4-----4-----4-----4-----4-----4-|
A|--2-----------2-----------2-----------2----------|
E|-------------------------------------------------|

continues and verse ends:
e|-------------------------------------------------|
B|-------------------------------------------------|
G|--------0-----------0-----------0-----------0----|
D|-----5-----5-----5-----5-----5-----5-----5-----5-|
A|--3-----------3-----------3-----------3----------|
E|-------------------------------------------------|

chorus:
             F
you
Автор: muzzon