Gitarizm

» Тексты и аккорды к песням для гитары » Zita Swoon - Moving through life as prey (аккорды)

Гитаризм

Конкурс на лучший кавер
Здесь могла бы быть Ваша реклама!
Хотите узнать как играть на гитаре? Гитаризм — лучший самоучитель гитары для начинающих!

Zita Swoon - Moving through life as prey (аккорды)




--------
INTRO
--------

E|--------------------------------------------------------
B|--------------------------------------------------------
G|--5--5--5--5--5--5--5----5----5--5--5--5--5--5--5----5--
D|--3--3--3--3--3--3--3----5----7--7--7--7--7--7--7----5--
A|--5--5--5--5--5--5--5----7----8--8--8--8--8--8--8----7--
E|--------------------------------------------------------

Somebody screamed

somebody forced a lie

			  G
somebody broke my faith today

--------
CHORUS
--------

Am		Am(maj7)	       Dm
  And though it always seems the first time

	   F
it happens all the time baby

G			       Am
- i find i'm danglin on a thin line

       Fmaj7		      C
we are moving through life as prey

     G
everyday

--------
PART 1
--------

	Dm
Somebody cried
Down on the floor, i look up at the faces....

Em F
 - ragged by the races, somewhere in time

Em Dm
 - following the traces, pretending a smile

Em F
 - walking million miles....

		      Am   Am    Dm
And I listen to their stories


(chords explained)
E|------1-------1-------1---------------1-------1-------1-------------||
B|------3-------3-------3---------------1-------1-------1-------------||
G|----2---2---2---2---2---2---2---0---2---2---2---2---2---2---2---0---||
D|--0-------0-------0-------0---2---3-------3-------3-------3---2-----||
A|--------------------------------------------------------------------||
E|--------------------------------------------------------------------||


--------
CHORUS
--------

Am		Am(maj7)	       Dm
  And though it always seems the first time

	   F
it happens all the time baby

G			       Am
- i find i'm danglin on a thin line

       Fmaj7		      C
we are moving through life as prey

     G
everyday, two, three

--------
PART 2
--------

(Same as PART 1)


(Guitar 2)

E|----------8-----------8-----------8----------8-----
B|--10--8p-----10h--8p-----10h--8p-----10h--8-----8--
G|---------------------------------------------------
D|---------------------------------------------------
A|---------------------------------------------------
E|---------------------------------------------------



Dm				     Em	       F
Somebody arrives a foreign place and starts to cry

    Em    Dm
but not a soul who thinks of giving up his precious place

    Em	    F
and so they die

--------
CHORUS
--------

Am		Am(maj7)	       Dm
  And though it always seems the first time

	   F
it happens all the time baby

G			       Am
- i find i'm danglin on a thin line

       Fmaj7		      C
we are moving through life as prey

     G
everyday

--------
ENDING
--------

Am	F	C	G



Автор: muzzon