Gitarizm

» Тексты и аккорды к песням для гитары » Zinkplaat - Blikkitaar Blues (табулатура)

Гитаризм

Конкурс на лучший кавер
Здесь могла бы быть Ваша реклама!
Хотите узнать как играть на гитаре? Гитаризм — лучший самоучитель гитары для начинающих!

Zinkplaat - Blikkitaar Blues (табулатура)


Zinkplaat - Blikkitaar Blues
Tabbed by KMeisster

This song is played with a capo on the 2nd fret. The original tabber had most of it 
except for the
chorus. I've also included the basic frets for the blues guitar in the background. Im not gonna tab it.
I don't have that kind of patience.


Intro and Verse
       G           C2          G        D/Dsus2
e -----------------------------------------2---2h3---|
B -----------3-----------3-----------3---------------|
G --------0-----0-----0-----0-----0------------------|
D --------------------------------------0------------|
A -----------------3-----------2---------------------|
E -----3---------------------------------------------|


Chorus
       G     Em9   C2    D Dsus2
e -----3-----3-----3-----2-3--|
B -----3-----3-----3-----3-3--|
G -----0-----0-----0-----2-2--|   x7
D -----0-----2-----2-----0-0--|
A -----2-----2-----3----------|
E -----3-----0----------------|

Bridge

       Em    G     D
e -----0-----3-----2-|
B -----0-----3-----3-|
G -----0-----0-----2-|
D -----2-----0-----0-|
A -----2-----2-------|
E -----0-----3-------|

Lyrics
Verse

Sy's 'n protea wat op die vlaktes groei
Daar waar die son selfs die sonbesies skroei
Haar o
Автор: muzzon