Gitarizm

» Тексты и аккорды к песням для гитары » Ziggy Marley - Love Is My Religion bass (табулатура)

Гитаризм

Конкурс на лучший кавер
Здесь могла бы быть Ваша реклама!
Хотите узнать как играть на гитаре? Гитаризм — лучший самоучитель гитары для начинающих!

Ziggy Marley - Love Is My Religion bass (табулатура)


------------------------------------------------------------------------------
	         "LOVE IS MY RELIGION" - Ziggy Marley
-------------------------------------------------------------------------------

Tabbed By : Super Kisseler

Tuning:Standard

Ok so once again no one ever tabs out a Ziggy song and I love his music so this 
might not be the best tab but I'll give it my best shot.

Key:
H = Hammer On
P = Pull Off


CHORUS:

G|-------------------|            
D|-------------------|
A|------------2------|  THEN
E|-0H1-2--4----------|                G|-------------------------|
                                      D|-------------------------| AS MANY
                                      A|------3------------------|TIMES AS
                                      E|-0H2---------------------|NEEDED



VERSE:

G|-------------------------------------------------------------------------|
D|-------------------------------------------------------------------------|
A|--2----2-----------------------------------------------------------------|
E|-----3-------------------------------------------------------------------|


INTERLUDE:


G|-------------------------------------------------------------------------|
D|-------------------------------------------------------------------------|
A|-------------------------------------------------------------------------|
E|--2-2-----4-4-----2-2---4-4-----2-2----4-4----2-2----4-4-----------------|


BREAKDOWN:


G|-------------------------------------------------------------------------|
D|-------------------------------------------------------------------------|
A|-2-2-----5-5-----0-3-5---------------------------------------------------|
E|-------------------------------------------------------------------------|
Автор: muzzon