Gitarizm

» Тексты и аккорды к песням для гитары » Ziggy Marley - Into The Grove bass (табулатура)

Гитаризм

Конкурс на лучший кавер
Здесь могла бы быть Ваша реклама!
Хотите узнать как играть на гитаре? Гитаризм — лучший самоучитель гитары для начинающих!

Ziggy Marley - Into The Grove bass (табулатура)


-------------------------------------------------------------------------------
		      "INTO THE GROOVE" - Ziggy Marley
-------------------------------------------------------------------------------

Tabbed By : Superkisseler

Tuning: Standard

Ok I really like Ziggy Marley and there seems to be no tabs for him so I'm gonna give it 
best shot at doing it myself.

INTRO:

G|-------------------------------------|
D|-------------------------------------|
A|-0---3----7--------------------------|    X 6
E|-------------------------------------|


MAIN CHORUS RIFF:

G|-------------------------------------------------------------------------|
D|---------------------------0---3--4--5-----5---6--7----------------------|
A|----0---3---5---3---0----------------------------------------------------|
E|-------------------------------------------------------------------------|


VERSE:

G|-------------------------------------------------------------------------|
D|------------5---------------9--------------------------------------------|
A|-5--5--7--5------7--7--9--7----------------------------------------------|
E|-------------------------------------------------------------------------|


This probably isn't dead on but I think it's pretty close.
Автор: muzzon