Gitarizm

» Тексты и аккорды к песням для гитары » Zico Chain - Social Suicide (табулатура)

Гитаризм

Конкурс на лучший кавер
Здесь могла бы быть Ваша реклама!
Хотите узнать как играть на гитаре? Гитаризм — лучший самоучитель гитары для начинающих!

Zico Chain - Social Suicide (табулатура)


Song: Social Suicide
Artist: Zico Chain
Album: The Zico Chain

Tabbed by: garyhann
Email: [email protected]

Tuning: Drop C


  Intro/Chorus
D|--------------------------------------------------|
A|--------------------------------------------------|
F|--------------------------------------------------|
C|--55-33-8888-55-33-8888-55-33-8888-88-1010-77-88--|
G|--55-33-8888-55-33-8888-55-33-8888-88-1010-77-88--|
C|--55-33-8888-55-33-8888-55-33-8888-88-1010-77-88--|


  Verse 1
D|----------------------------------|
A|--8~-----------8~----6~----11-10--|
F|--7~-----------7~----5~----10-9---|
C|--5~-----------5~----3~----8--7---|
G|----------------------------------|
C|----------------------------------|


  Pre-Chorus
D|----------------------------||--------------------|
A|----------------------------||--------------------|
F|----------------------------||--------------------|
C|--35-35-35-353-565----------||--35-35-35-353-113--|
G|--35-35-35-353-565----[x3]--||--35-35-35-353-113--|
C|--35-35-35-353-565----------||--35-35-35-353-113--|


  Verse 2
D|-----------------------------|
A|-----------------------------|
F|-----------------------------|
C|-----------------------------|
G|-----------------------------|
C|--5-----5------5----3---8-7--|


  Bridge 1
D|--------------------|
A|--------------------|
F|--5555555555555555--|
C|--3333333333333333--|
G|--------------------|
C|--------------------|
  Slowly bend 
Автор: muzzon