Gitarizm

» Тексты и аккорды к песням для гитары » Zico Chain - Pretty Pictures (табулатура)

Гитаризм

Конкурс на лучший кавер
Здесь могла бы быть Ваша реклама!
Хотите узнать как играть на гитаре? Гитаризм — лучший самоучитель гитары для начинающих!

Zico Chain - Pretty Pictures (табулатура)


No tabs of this yet; hope you like it..... again; I believe this to be prefect.... minus 
fact I havn't done the solo......

::bass::

D|-------------------------------|
A|-------------------------------|
F|-12~---15~---17/19~---17-17-17-|
C|-------------------------------|
G|-10~---13~---15/17~---15-15-15-|
C|-------------------------------|

D|-------------------------------|
A|-------------------------------|
F|-------------------------------|
C|-553h565553h565553h5651-1-1-|
G|-553h565553h565553h5651-1-1-|
C|-553h565553h565553h5651-1-1-|x4

D|--------------------------------------------|
A|--------------------------------------------|
F|-5---9---10---------------------------------|
C|--------------553h565553h565553h5651-1-1-|
G|-3---7---8----553h565553h565553h5651-1-1-|
C|--------------553h565553h565553h5651-1-1-|x2

D|-----------------------|
A|-----------------------|
F|-----------------------|
C|-3--336-6-6-1--1-8-8-8-|
G|-3--336-6-6-1--1-8-8-8-|
C|-3--336-6-6-1--1-8-8-8-|

D|-------------------------|
A|-------------------------|
F|-------------------------|
C|-3--336-6-6-1--1-8h98hp8-|
G|-3--336-6-6-1--1-8h98h98-|
C|-3--336-6-6-1--1-8h98h98-|

D|-----------------------|
A|-----------------------|
F|-----------------------|
C|-3--336-6-6-1--1-8-8-8-|
G|-3--336-6-6-1--1-8-8-8-|
C|-3--336-6-6-1--1-8-8-8-|x2

D|-------------------------------|
A|-------------------------------|
F|-------------------------------|
C|-553h565553h565553h5651-1-1-|
G|-553h565553h565553h5651-1-1-|
C|-553h565553h565553h5651-1-1-|x4

D|--------------------------------------------|
A|--------------------------------------------|
F|-5---9---10---------------------------------|
C|--------------553h565553h565553h5651-1-1-|
G|-3---7---8----553h565553h565553h5651-1-1-|
C|--------------553h565553h565553h5651-1-1-|x2

D|-----------------------|
A|-----------------------|
F|-----------------------|
C|-3--336-6-6-1--1-8-8-8-|
G|-3--336-6-6-1--1-8-8-8-|
C|-3--336-6-6-1--1-8-8-8-|

D|-------------------------|
A|-------------------------|
F|-------------------------|
C|-3--336-6-6-1--1-8h98hp8-|
G|-3--336-6-6-1--1-8h98h98-|
C|-3--336-6-6-1--1-8h98h98-|

D|-----------------------|
A|-----------------------|
F|-----------------------|
C|-3--336-6-6-1--1-8-8-8-|
G|-3--336-6-6-1--1-8-8-8-|
C|-3--336-6-6-1--1-8-8-8-|x2

::two bar rest::

D|---------------------------------------------|
A|---------------------------------------------|
F|---------------------------------------------|
C|5553h5651-1-1-553h565553h565553h5651-1-1-|
G|5553h5651-1-1-553h565553h565553h5651-1-1-|
C|5553h5651-1-1-553h565553h565553h5651-1-1-|

::solo:: which I can't figure out......

D|--------------------------------------|
A|--------------------------------------|
F|--------------------------------------|
C|-5--9--3--10--5--9--3--10h11-10h11-10-|
G|-5--9--3--10--5--9--3--10h11-10h11-10-|
C|-5--9--3--10--5--9--3--10h11-10h11-10-|(same strumming pattern as before)

D|--------------------------|
A|--------------------------|
F|--------------------------|
C|-5--9--3--10--5--9--3--10-|
G|-5--9--3--10--5--9--3--10-|
C|-5--9--3--10--5--9--3--10-|

D|-------------------------------|
A|-------------------------------|
F|-------------------------------|
C|-775h787775h787775h7871-1-1-|
G|-775h787775h787775h7871-1-1-|
C|-775h787775h787775h7871-1-1-|x4

and that's it. Feedback is greatly appreciated; positive and negative.
Автор: muzzon