Gitarizm

» Тексты и аккорды к песням для гитары » Zico Chain - Junk (табулатура)

Гитаризм

Конкурс на лучший кавер
Здесь могла бы быть Ваша реклама!
Хотите узнать как играть на гитаре? Гитаризм — лучший самоучитель гитары для начинающих!

Zico Chain - Junk (табулатура)


                          The Zico Chain
                               Junk

Tuning EADBGE

/- slide up and down


-------------|
-------------|
-------------|
-------------|
-2-5-2-5/87-|
-0-3-0-3/65-|


-------------------------------------------------------|
-------------------------------------------------------|
-------------------------------------------------------|
-------------------------------------------------------|
-5-5-5-8-8-8-8-7-7-7-7-----5-5-5-8-8-8-8-7-7-7-7-8-7-5-|
-3-3-3-6-6-6-6-5-5-5-5-----3-3-3-6-6-6-6-5-5-5-5-6-5-3-|

-----------------------------|
-----------------------------|
-----------------------------|
-----------------------------|
-5-5-5-5-5-5-5-4-4-4-4-4-4-4-|
-3-3-3-3-3-3-3-2-2-2-2-2-2-2-|

--------------|
--------------|
--------------|
---5----7/87-|
---3----5/65-|
-0---0--------|


-----------------------------------------------------|
-----------------------------------------------------|
-----------------------------------------------------|
-----------------------------------------------------|
-9-2--4--4-6-6-4-4-7-7-2-4-6-4-4-7-6-4-6-2-4-2-4-5-2-|
-7-0--2--2-4-4-2-2-5-5-0-2/4-2-2-5-4-2-4-0-2-0-2-3-0-|

These tabs aren't perfect but i couldn't find them anywhere so i tabbed it myself
Автор: muzzon