Gitarizm

» Тексты и аккорды к песням для гитары » Zevon Warren - Desperados under the eaves (табулатура)

Гитаризм

Конкурс на лучший кавер
Здесь могла бы быть Ваша реклама!
Хотите узнать как играть на гитаре? Гитаризм — лучший самоучитель гитары для начинающих!

Zevon Warren - Desperados under the eaves (табулатура)




Date: Sat, 27 Sep 1997 13:05:26 -0400 (EDT)
From: Paul. 
Subject: TAB: Desperados Under the Eaves by Warren Zevon

Incomplete tab transcription, but it's a decent start ...
I do it acoustic as well as acoustic/electric
transcribed by [email protected]

Desperados Under The Eaves
Warren Zevon
------------5-5-----5-----5-----8-5-8--------5-8-8-8^10-----10-8-5-6-5---------
--6-6--8-8--------8---6-6---8---------8----6------------8--------------8~~--5--
-------------------------------------------------------------------------------
-------------------------------------------------------------------------------
-------------------------------------------------------------------------------
-------------------------------------------------------------------------------

F
F     Bb             C           F
I ..
      Bb            C            F
I ..
      A                 Asus4-A      Bb
I ...
        F (let ring)
All ..
C
I'm ..

F      Bb         C(III)          F
And ..
         Bb          C(I)              F
Like ...
A              Asus4()      Bb
I ..
C              F
Until ..

acoustic riff         electric riff ()
--------------------- ---------------------
--------------------- ---------------------
----2-3-3-2-3-2------ ---------------------
--3-------------3---- ---------------------
------------------3-- ---------------------
--------------------- ---------------------

Don't ..
Don't ...
Don't ...
Heaven ..

Bb                                   F
Still ...
F                                      C
And ..
    A                       Asus4        Bb
But ..
Bb        Bb       C        F
Don't ..

I ...
I ..
It ....

{I haven't bothered to transcribe this part - I usually end in a jam in F,
then transition into After Midnight or just about anything done by Bonnie
Raitt in F.  Nothing like taking an audience from a relaxing tune to
dancing their butts off.}


 Look away..........................................
(Look ..


Автор: muzzon