Gitarizm

» Тексты и аккорды к песням для гитары » Zeromancer - Stop The Noise (табулатура)

Гитаризм

Конкурс на лучший кавер
Здесь могла бы быть Ваша реклама!
Хотите узнать как играть на гитаре? Гитаризм — лучший самоучитель гитары для начинающих!

Zeromancer - Stop The Noise (табулатура)


Artist : Zeromancer
Song   : Stop The Noise
Album  : ZZYZX
Tuning : Drop Db / Drop C# (same thing)

Tabbed by jaames

Intro Gtr.1
Eb|-----------------------------------------|
Bb|-----------------------------------------|
Gb|-----------------------------------------|
Db|-7-7--7-7--83--3-3-3--0-0-0--0-3--1-1-1-|
Ab|-7-7--7-7--83--3-3-3--0-0-0--0-3--1-1-1-|
Db|-7-7--7-7--83--3-3-3--0-0-0--0-3--1-1-1-|


Gtr.2
Eb|---------------------------------------|
Bb|---------------------------------------|
Gb|-7-7-7-7-7-7-7---95-5-5---14-14-14-14-|
Db|-x-x-x-x-x-x-x---xx-x-x----x--x--x--x-|
Ab|-5-5-5-5-5-5-5---73-3-3---12-12-12-12-|
Db|---------------------------------------|

Verse
Eb|-------------------------------------------------|
Bb|-------------------------------------------------|
Gb|-------------------------------------------------|
Db|-7-7--7-7--7-7--7-7--7-8-8--3-3--3-3--3-0-0--0-0-|
Ab|-7-7--7-7--7-7--7-7--7-8-8--3-3--3-3--3-0-0--0-0-|
Db|-7-7--7-7--7-7--7-7--7-8-8--3-3--3-3--3-0-0--0-0-|

Chorus Gtr.1
Eb|-----------------------------------------|
Bb|-----------------------------------------|
Gb|-----------------------------------------|
Db|-7-7--7-7--83--3-3-3--0-0-0--0-3--1-1-1-|
Ab|-7-7--7-7--83--3-3-3--0-0-0--0-3--1-1-1-|
Db|-7-7--7-7--83--3-3-3--0-0-0--0-3--1-1-1-|


Gtr.2
Eb|---------------------------------------|
Bb|---------------------------------------|
Gb|-7-7-7-7-7-7-7---95-5-5---14-14-14-14-|
Db|-x-x-x-x-x-x-x---xx-x-x----x--x--x--x-|
Ab|-5-5-5-5-5-5-5---73-3-3---12-12-12-12-|
Db|---------------------------------------|

Repeat Intro, Verse, and Chorus

Bridge Gtr.1
Eb|---------------------------|
Bb|---------------------------|
Gb|-7b9r7--5-----7b9r7--5--7--|
Db|-----------7---------------|
Ab|---------------------------|
Db|---------------------------|

Gtr.2
Eb|--------------------------------------------------------|
Bb|--------------------------------------------------------|
Gb|--------------------------------------------------------|
Db|-7-7-7-7-7-7-7--83-3-3-3--0-0-0-0-0-0-0--1-1-1-1-1-1-1-|
Ab|-7-7-7-7-7-7-7--83-3-3-3--0-0-0-0-0-0-0--1-1-1-1-1-1-1-|
Db|-7-7-7-7-7-7-7--83-3-3-3--0-0-0-0-0-0-0--1-1-1-1-1-1-1-|

Awesome song for an awesome band.
Автор: muzzon