Gitarizm

» Тексты и аккорды к песням для гитары » Zero Boys - Vicious Circle (табулатура)

Гитаризм

Конкурс на лучший кавер
Здесь могла бы быть Ваша реклама!
Хотите узнать как играть на гитаре? Гитаризм — лучший самоучитель гитары для начинающих!

Zero Boys - Vicious Circle (табулатура)


Intro
E---------------|---------------|---------------|---------------|
B---------------|---------------|---------------|---------------|
G---------2-3-4-|---------------|---------2-3-4-|---------------|
D-2-4-5-6-2-3-4-|---------------|-2-4-5-6-2-3-4-|---------------|
A-2-4-5-6-0-1-2-|---------------|-2-4-5-6-0-1-2-|---------------|
E-0-2-3-4-------|---------------|-0-2-3-4-------|---------------|

Verse
E---------------|---------------|---------------|---------------|
B---------------|---------------|---------------|---------------|
G---------2-3-4-|---------2-3-4-|---------2-3-4-|---------2-3-4-|
D-2-4-5-6-2-3-4-|-2-4-5-6-2-3-4-|-2-4-5-6-2-3-4-|-2-4-5-6-2-3-4-|
A-2-4-5-6-0-1-2-|-2-4-5-6-0-1-2-|-2-4-5-6-0-1-2-|-2-4-5-6-0-1-2-|
E-0-2-3-4-------|-0-2-3-4-------|-0-2-3-4-------|-0-2-3-4-------|

Chorus 
E-----------------|-----------------|-----------------|-----------------|
B-----------------|-----------------|-----------------|-----------------|
G-7-7-7-7-4-4-4-4-|-7-7-7-7---------|-7-7-7-7-4-4-4-4-|-7-7-7-7---------|
D-7-7-7-7-4-4-4-4-|-7-7-7-7-4-4-4-4-|-7-7-7-7-4-4-4-4-|-7-7-7-7-4-4-4-4-|
A-5-5-5-5-2-2-2-2-|-5-5-5-5-4-4-4-4-|-5-5-5-5-2-2-2-2-|-5-5-5-5-4-4-4-4-|
E-----------------|---------2-2-2-2-|-----------------|---------2-2-2-2-|

Verse
E---------------|---------------|---------------|---------------|
B---------------|---------------|---------------|---------------|
G---------2-3-4-|---------2-3-4-|---------2-3-4-|---------2-3-4-|
D-2-4-5-6-2-3-4-|-2-4-5-6-2-3-4-|-2-4-5-6-2-3-4-|-2-4-5-6-2-3-4-|
A-2-4-5-6-0-1-2-|-2-4-5-6-0-1-2-|-2-4-5-6-0-1-2-|-2-4-5-6-0-1-2-|
E-0-2-3-4-------|-0-2-3-4-------|-0-2-3-4-------|-0-2-3-4-------|

Chorus 
E-----------------|-----------------|-----------------|-----------------|
B-----------------|-----------------|-----------------|-----------------|
G-7-7-7-7-4-4-4-4-|-7-7-7-7---------|-7-7-7-7-4-4-4-4-|-7-7-7-7---------|
D-7-7-7-7-4-4-4-4-|-7-7-7-7-4-4-4-4-|-7-7-7-7-4-4-4-4-|-7-7-7-7-4-4-4-4-|
A-5-5-5-5-2-2-2-2-|-5-5-5-5-4-4-4-4-|-5-5-5-5-2-2-2-2-|-5-5-5-5-4-4-4-4-|
E-----------------|---------2-2-2-2-|-----------------|---------2-2-2-2-|

Verse (outro)
E---------------|---------------|---------------|---------------|
B---------------|---------------|---------------|---------------|
G---------2-3-4-|---------2-3-4-|---------2-3-4-|---------2-3-4-|
D-2-4-5-6-2-3-4-|-2-4-5-6-2-3-4-|-2-4-5-6-2-3-4-|-2-4-5-6-2-3-4-|
A-2-4-5-6-0-1-2-|-2-4-5-6-0-1-2-|-2-4-5-6-0-1-2-|-2-4-5-6-0-1-2-|
E-0-2-3-4-------|-0-2-3-4-------|-0-2-3-4-------|-0-2-3-4-------|
Автор: muzzon