Gitarizm

» Тексты и аккорды к песням для гитары » Zero Boys - Vicious Circle bass (табулатура)

Гитаризм

Конкурс на лучший кавер
Здесь могла бы быть Ваша реклама!
Хотите узнать как играть на гитаре? Гитаризм — лучший самоучитель гитары для начинающих!

Zero Boys - Vicious Circle bass (табулатура)


Intro
G---------------|---------------|---------------|---------------|
D---------------|---------------|---------------|---------------|
A---------------|---------0-1-2-|---------------|---------0-1-2-|
E---------------|-0-2-3-4-------|---------------|-0-2-3-4-------|

Verse
G---------------|---------------|---------------|---------------|
D---------------|---------------|---------------|---------------|
A---------0-1-2-|---------0-1-2-|---------0-1-2-|---------0-1-2-|
E-0-2-3-4-------|-0-2-3-4-------|-0-2-3-4-------|-0-2-3-4-------|


Chorus 
G-----------------|-----------------|-----------------|-----------------|
D-----------------|-----------------|-----------------|-----------------|
A-5-5-5-5-2-2-2-2-|-5-5-5-5---------|-5-5-5-5-2-2-2-2-|-5-5-5-5---------|
E-----------------|---------2-2-2-2-|-----------------|---------2-2-2-2-|

Verse
G---------------|---------------|---------------|---------------|
D---------------|---------------|---------------|---------------|
A---------0-1-2-|---------0-1-2-|---------0-1-2-|---------0-1-2-|
E-0-2-3-4-------|-0-2-3-4-------|-0-2-3-4-------|-0-2-3-4-------|

Chorus 
G-----------------|-----------------|-----------------|-----------------|
D-----------------|-----------------|-----------------|-----------------|
A-5-5-5-5-2-2-2-2-|-5-5-5-5---------|-5-5-5-5-2-2-2-2-|-5-5-5-5---------|
E-----------------|---------2-2-2-2-|-----------------|---------2-2-2-2-|

Verse(outro)
G---------------|---------------|---------------|---------------|
D---------------|---------------|---------------|---------------|
A---------0-1-2-|---------0-1-2-|---------0-1-2-|---------0-1-2-|
E-0-2-3-4-------|-0-2-3-4-------|-0-2-3-4-------|-0-2-3-4-------|
Автор: muzzon