Gitarizm

» Тексты и аккорды к песням для гитары » Zero Boys - She Said Goodbye bass (табулатура)

Гитаризм

Конкурс на лучший кавер
Здесь могла бы быть Ваша реклама!
Хотите узнать как играть на гитаре? Гитаризм — лучший самоучитель гитары для начинающих!

Zero Boys - She Said Goodbye bass (табулатура)


Intro
G---------------------------------|
D---------------------------------|
A-5-5-5-5-5-5-5-5-5-5-5-5-5-5-5-5-|
E---------------------------------|

Main Riff
G-----------------------|-----------------------|
D----------------4-4-2--|----------------4-4-2--|
A-5--5-5-5-0-0-0--------|-5--5-5-5-0-0-0--------|
E-----------------------|-----------------------|

Verse
G-----------------------|-----------------------|
D----------------4-4-2--|----------------4-4-2--|
A-5--5-5-5-0-0-0--------|-5--5-5-5-0-0-0--------|
E-----------------------|-----------------------|

G-----------------------|-----------------------|
D----------------4-4-2--|----------------4-4-2--|
A-5--5-5-5-0-0-0--------|-5--5-5-5-0-0-0--------|
E-----------------------|-----------------------|

Chorus
G------------------|-----------------|----------------|-----------------|
D-2-2-2-2----------|-2-2-2-2---------|-2-2-2-2--------|-2-2-2-2---------|
A---------0-0-0-0--|---------0-0-0-0-|--------0-0-0-0-|---------0-0-0-0-|
E------------------|-----------------|----------------|-----------------|

G---------------------------------|
D---------------------------------|
A-5-5-5-5-5-5-5-5-5-5-5-5-5-5-5-5-|
E---------------------------------|

Main Riff
G-----------------------|-----------------------|
D----------------4-4-2--|----------------4-4-2--|
A-5--5-5-5-0-0-0--------|-5--5-5-5-0-0-0--------|
E-----------------------|-----------------------|

2nd Verse
G-----------------------|-----------------------|
D----------------4-4-2--|----------------4-4-2--|
A-5--5-5-5-0-0-0--------|-5--5-5-5-0-0-0--------|
E-----------------------|-----------------------|

G-----------------------|-----------------------|
D----------------4-4-2--|----------------4-4-2--|
A-5--5-5-5-0-0-0--------|-5--5-5-5-0-0-0--------|
E-----------------------|-----------------------|

Chorus
G------------------|-----------------|----------------|-----------------|
D-2-2-2-2----------|-2-2-2-2---------|-2-2-2-2--------|-2-2-2-2---------|
A---------0-0-0-0--|---------0-0-0-0-|--------0-0-0-0-|---------0-0-0-0-|
E------------------|-----------------|----------------|-----------------|

G---------------------------------|
D---------------------------------|
A-5-5-5-5-5-5-5-5-5-5-5-5-5-5-5-5-|
E---------------------------------|

Solo
G-----------------------|-----------------------|
D----------------4-4-2--|----------------4-4-2--|
A-5--5-5-5-0-0-0--------|-5--5-5-5-0-0-0--------|
E-----------------------|-----------------------|

G-----------------------|-----------------------|
D----------------4-4-2--|----------------4-4-2--|
A-5--5-5-5-0-0-0--------|-5--5-5-5-0-0-0--------|
E-----------------------|-----------------------|

Chorus
G------------------|-----------------|----------------|-----------------|
D-2-2-2-2----------|-2-2-2-2---------|-2-2-2-2--------|-2-2-2-2---------|
A---------0-0-0-0--|---------0-0-0-0-|--------0-0-0-0-|---------0-0-0-0-|
E------------------|-----------------|----------------|-----------------|

G---------------------------------|
D---------------------------------|
A-5-5-5-5-5-5-5-5-5-5-5-5-5-5-5-5-|
E---------------------------------|

Outro (2nd Solo)
G-----------------------|-----------------------|
D----------------4-4-2--|----------------4-4-2--|
A-5--5-5-5-0-0-0--------|-5--5-5-5-0-0-0--------|
E-----------------------|-----------------------|

G-----------------------|------------|
D----------------4-4-2--|------------|
A-5--5-5-5-0-0-0--------|-5--5-5-5-0-|
E-----------------------|------------|
Автор: muzzon