Gitarizm

» Тексты и аккорды к песням для гитары » Zero Assoluto - Sei Parte Di Me bass (табулатура)

Гитаризм

Конкурс на лучший кавер
Здесь могла бы быть Ваша реклама!
Хотите узнать как играть на гитаре? Гитаризм — лучший самоучитель гитары для начинающих!

Zero Assoluto - Sei Parte Di Me bass (табулатура)


++++++++++++++++++++++++++++++++++
| Zero Assoluto- Sei Parte Di Me |
++++++++++++++++++++++++++++++++++


"Mi prendo un ricordo che tengo nascosto lontano dal tempo..."

Tuning: EADG


Intro
1.
G|-----------2-4---------------4-2~----------------5~--------|
D|-2~------------2~--------2-2-------------2-2-2-3-----------|
A|-----------------------------------------------------------|
E|-----------------------------------------------------------|

Verse
"No, sto pensando che..."
2.
G|------------------------------------------|
D|------------------------------------------|
A|-3~--------0~-----------------------------|--x2
E|---------------------0~-------0-1~--------|

Chorus
"E per ogni giorno mi prendo un ricordo..."
3.
G|-------------------------------------------|
D|-------------------------------------------|
A|-3~------------------0~--------------------|--x2
E|-----------1~--------------3~----1~--------|

Outro
"Sei parte di me..."
4.
G|---------------------|
D|---------------------|
A|-3~------------------|
E|-----------0~--------|

Verse
"In macchina non tornano..."
5.
G|---------------------------------------------------------------|
D|-------------------------------0~------------------0~----------|
A|-3~------------------------------------------------------------|
E|-----------0~--------1~------------------1~--------------3~----|

Chorus
"E per ogni giorno mi prendo un ricordo..."
6.
G|-------------------------------------------|
D|-------------------------------------------|
A|-3~------------------0~--------------------|--x2
E|-----------1~--------------3~----1~--------|

Outro
"Sei parte di me..."
7.
G|-----------------------------------------|
D|-----------------------------------------|
A|-3~------------------3~------------------|
E|-----------0~------------------0~--------|

Bridge
8.
G|-----------------------------------------|
D|-----------------------------------------|
A|-3~--------0~----------------------------|
E|---------------------0~--------1~--------|

Chorus
"E se ti fermassi soltanto un momento..."
9.
G|-------------------------------------------|
D|-------------------------------------------|
A|-3~------------------0~--------------------|
E|-----------1~--------------3~----1~--------|

Outro
"Sei parte di me..."
10.
G|-------------------------------------------|
D|-------------------------------------------|
A|-3~------------------0~--------------------|
E|-----------1~--------------3~----1~--------|

"Lo tengo per me..."
11.
G|-----------------------------------------|
D|-----------------------------------------|
A|-3~------------------3~------------------|
E|-----------0~------------------0~--------|



Lyrics:


No, sto pensando che
Non ritornano, sto pensando che
Che se poi ci riprovo
Lo so che non 
Автор: muzzon