Gitarizm

Гитаризм

Конкурс на лучший кавер
Здесь могла бы быть Ваша реклама!
Хотите узнать как играть на гитаре? Гитаризм — лучший самоучитель гитары для начинающих!
Загрузка...

Zero Assoluto - Seduto Qua bass (табулатура)


+++++++++++++++++++++++++++++
| Zero Assoluto- Seduto Qua |
+++++++++++++++++++++++++++++

Tuning: EADG

Intro
1.
G|-4-7-------------------------4~--4-4~--4-4~--4-4-|
D|-----5~--5-5~--5-2~--2-2~--2---------------------|
A|-------------------------------------------------|
E|-------------------------------------------------|

2.
G|-7/11-9-7~------7-9~----11-7~--------7/11-9-7~------7-9~----11-7~----|
D|--------------9-----------------------------------9------------------|
A|---------------------------------------------------------------------|
E|---------------------------------------------------------------------|

3.
G|---------------------------------|
D|-9p7h9~----9p7h9~----9-7-4-2~----|
A|---------------------------------|
E|---------------------------------|

Verse
"Sono giornate lunghe quando non vuoi uscire..."
4.
G|-------------------------------------------------|
D|-------------------------------------------------|
A|-------------------------2~--2-2~--2-2~--2-2~--2-|--x2
E|-3~--3-3~--3-0~--0-0~--0-------------------------|

Chorus
"Come ieri come sempre, attendere..."
5.
G|-7/11-9-7~------7-9~----11-7~--------7/11-9-7~------7-9~----11-7~----|
D|--------------9-----------------------------------9------------------|
A|---------------------------------------------------------------------|--x2
E|---------------------------------------------------------------------|

Outro
6.
G|-----------7/11~-9-7-9-7-----|
D|-9p7h9~------------------9-7-|
A|-----------------------------|
E|-----------------------------|

Verse
"C
Автор: muzzon