Gitarizm

» Тексты и аккорды к песням для гитары » Zero 7 - Red Dust bass (табулатура)

Гитаризм

Конкурс на лучший кавер
Здесь могла бы быть Ваша реклама!
Хотите узнать как играть на гитаре? Гитаризм — лучший самоучитель гитары для начинающих!

Zero 7 - Red Dust bass (табулатура)


-------------------------------------------------------------------------------
			     Red dust - Zero 7
-------------------------------------------------------------------------------

Tabbed By : Mircea D.
e-mail: [email protected]


Intro (0:00-0:30)

G|-----------------------------------------------|
D|----------9-----911/9---------9---------------|
A|--------9-----9--------9------------9-12-11-9--|
E|-7-----------------------7---------------------|

G|-----------------------------------------------|
D|----------9--------9---9--------------9--------|
A|--------9--------9---9--------------9----------|
E|-7---------------------------7--------------7--|

Bass starts again at 0:55
1.
0:55
G|---------------------------------|
D|---------------------------------|
A|------------------7----7-7-------|
E|-7--5---0-5-5---7----7------7--5-|
(continues with minor differences that you can sort out yourself)

2.
1:37
G|---------------------------------------------------------------|
D|---------5-----------------------------------------------------|
A|-----5h7---5h7-----------------------5---7---------------------|
E|-0---------------5--0-5-5--7-0---5h7---7-----5--0-5-5---5h7-0--|

3.
2:00
G|-------------------------------------------------------|
D|-------7-7--5h7------7--7------------------------------|
A|-----7-------------7--7----5h7-------7--7----------7-7-|
E|-5--------------5--------------0---7--7---7--0---7-----|

So this is the basic tab, if you want to play it exactly like the original  just listen 
the song for those little differences.
Автор: muzzon