Gitarizm

» Тексты и аккорды к песням для гитары » Zero 7 - In The Waiting Line (табулатура)

Гитаризм

Конкурс на лучший кавер
Здесь могла бы быть Ваша реклама!
Хотите узнать как играть на гитаре? Гитаризм — лучший самоучитель гитары для начинающих!

Zero 7 - In The Waiting Line (табулатура)


This isn't very difficult by any means, but at the same time it's rather barebones,
meaning that some of the harmonizing notes are simply not there.  What I have is right,
but not complete.  Either way, here is a pretty little start for you, and if you would
like to improve on it or add to it at all, be my guest.  I just like the music. For the
rest of it, have fun with Ed B's tab.  Enjoy.
-M.A. Tschirhart
QCC's & BGC's: [email protected]

T=~ 2:50

e|--------------------------------------------------------------------|
B|----------------------------------------------------13-11-----------|
G|-------12-11-11p10-----10---10---10---10h11/12----12------12p10-----|
D|-10-13---------------13---13---13---13------------------------------|
A|--------------------------------------------------------------------|
E|--------------------------------------------------------------------|

e|-13h14p13-----11-------------18-------------------------------------|
B|----------13-(16)-13---18 20----20-19p18
Автор: muzzon