Gitarizm

» Тексты и аккорды к песням для гитары » Zeno - Out In The Night (табулатура)

Гитаризм

Конкурс на лучший кавер
Здесь могла бы быть Ваша реклама!
Хотите узнать как играть на гитаре? Гитаризм — лучший самоучитель гитары для начинающих!

Zeno - Out In The Night (табулатура)


-------------------------------------------------------------------------------
                             OUT IN THE NIGHT - Zeno
-------------------------------------------------------------------------------

Tabbed By : Isaias Garcia

Tuning: Standard, tempo = 95 bpm

http://www.zenoroth.com/zeno.htm


Rhythm Guitar

Intro
     m.14
  H        Q        Q        E  E  Q    Q.      E     E  E  H.              E  E  Q    Q.      E   
E||----------------------|------------------------|---------------------|------------------------|
B||----------------------|------------------------|---------------------|------------------------|
G||----------------------|--------5----4~------4--|-----5--5------------|--------5----4~------4--|
D||----------------------|--------7----5~------5--|-----7--7------------|--------7----5~------5--|
A||------------11g20----|--0--0------------------|---------------------|--0--0------------------|
E||----------------------|------------------------|---------------------|------------------------|

                                     Verse 1
  E  E  Q    Q        Q        E  E  E  E  Q     E  E     E  E  E  E  E  E   Q     
----------------------------|--------------------------|--------------------------|
----------------------------|--------------------------|--------------------------|
-----5--5----5--------------|--------5-----4~-------7--|-----7--7-----5-----------|
-----7--7----7--------------|--------7-----5~-------5--|-----4--4-----3-----------|
----------------------------|--0--0-----0--------0-----|--0--------0-----3~--L----|
------------------12g20----|--------------------------|--------------------------|


                                                                PM PM PM  
                                        |--3--| |--3--| |--3--| |--3--|   
  E  E  E  E  Q     E  E     E  E  Q    S  S  S S  S  S S  S  S S  S  S   
--------------------------|----------------------------------------------|
--------------------------|----------------------------------------------|
--------5-----4~-------7--|-----7--7--------------------7p-5p-0----------|
--------7-----5~-------5--|-----4--4------------4h-5h-7------------------|
--0--0-----0--------0-----|--0----------0h-5h-7-----------------7--5--3--|
--------------------------|----------------------------------------------|


                                                                       |--3--|        
  E  E  E  E  Q     E  E     E  E  E  E  E  E   Q       E  E  E  E  E  S  S  S E  E   
--------------------------|--------------------------|-----------3--L----------------|
--------------------------|--------------------------|-----------3--L-------------3--|
--------5-----4~-------7--|-----7--7-----------------|-----2--L--0--L--2h-4p-2----2--|
--------7-----5~-------5--|-----4--4-----3-----------|-----2--L--0--L----------5--0--|
--0--0-----0--------0-----|--0--------0-----3~--L----|-----0--L----------------------|
--------------------------|--------------------------|-----------3--L----------------|


                                       PM PM PM PM PM PM PM PM                PM     PM      
  H.              Q        S E.  S E.  S  S  S  S  S  S  S  S     S E.  S E.  S  E.  S  E.   
------------------------|--------------------------------------|----------------------------|
--L---------------------|--------------------------------------|----------------------------|
--L---------------------|--------------------------------------|----------------------------|
--L---------------------|--------------------------------------|----------------------------|
------------------------|--3-----3-----3-----------3--2--------|--3-----3-----3------3------|
---------------7g17----|----1-----2------0--1--3--------5--3--|----1-----2------3------4---|

                                                                                   Chorus 1
              PM PM PM PM PM PM PM PM                                                     
  S E.  S E.  S  S  S  S  S  S  S  S     S E.  S E.  S E.  S E.     S E.  Q     H         
--------------------------------------|--------------------------|-----------------------|
--------------------------------------|--------------------------|-----------------------|
--------------------------------------|--------------------------|----2---L----10--------|
--------------------------------------|--------------------------|----2---L----10--------|
--3-----3-----3-----------3--2--------|--3-----3-----------------|----0---L-----8--------|
----1-----2------0--1--3--------5--3--|----1-----2-----3-----4---|--3--------------------|


                                                             ^ PM PM ^ PM PM ^ PM              
  H        H           S E.  Q     H           S E.  Q       S S  S  S S  S  S S  E  E   Q     
--------------------|-----------------------|-------------|-----------------------------------|
--------------------|-----------------------|-------------|-----------------------------------|
-----------2--------|----2---L----10--------|-------------|-----------------------9--L-------|
--5--------2--------|----2---L----10--------|-------------|-----------------------9--L-------|
--5--------0--------|----0---L-----8--------|-------------|-----------------------7--L-------|
--3-----------------|--3--------------------|--1-3---3----|--0-0--0--0-0--0--0-0--------------|

                                                            Verse 2
  S E.  Q    Q.     E     E  E  Q    H           E  E  E  E  Q     E  E   
-----------------------|----------------------|--------------------------|
-----------------------|----------------------|--------------------------|
--------------------7--|--L--7--L----5--------|--------5-----4~-------7--|
----2---2-----------5--|--L--4--L----3--------|--------7-----5~-------5--|
----0---0----5---------|----------------------|--0--0-----0--------0-----|
--3----------3---------|----------------------|--------------------------|


                                                                   PM PM > PM PM > PM PM       
  E  E  E  E  E    E   Q       E  E  E  E  Q     E  E     E  E  E  S  S  S S  S  S S  S  S  S  
----------------------------|--------------------------|--------------------------------------|
----------------------------|--------------------------|--------------------------------------|
-----7--7-------------------|--------5-----4~-------7--|-----7--7-----------------------------|
-----4--4-----3-------------|--------7-----5~-------5--|-----4--4-----------------------------|
--0--------0-----<>3~--L----|--0--0-----0--------0-----|--0--------0--0--2-0--0--3-0--0--5h-7-|
----------------------------|--------------------------|--------------------------------------|


                                                                       |--3--|        
  E  E  E  E  Q     E  E     E  E  E  E  E  E   Q       E  E  E  E  E  S  S  S E  E   
--------------------------|--------------------------|-----------3--L----------------|
--------------------------|--------------------------|-----------3--L----------------|
--------5-----4~-------7--|-----7--7-----------------|-----2--L--0--L--4h-5p-4----7--|
--------7-----5~-------5--|-----4--4-----3-----------|-----2--L--0--L----------7--7--|
--0--0-----0--------0-----|--0--------0-----3~--L----|-----0--L-------------------5--|
--------------------------|--------------------------|-----------3--L----------------|


                                           PM PM PM PM PM PM PM PM                             
  H        E  S S     Q        S E.  S E.  S  S  S  S  S  S  S  S     S E.  S E.  S E.  S E.   
----------------------------|--------------------------------------|--------------------------|
----------------------------|--------------------------------------|--------------------------|
--L--------L----------------|--------------------------------------|--------------------------|
--L--------L----------------|--------------------------------------|--------------------------|
--L--------L----------------|--3-----3-----3-----------3--2--------|--3-----3-----------------|
--------------x-x-12g17----|----1-----2------0--1--3--------5--3--|----1-----2---x-3---x-4---|

                                                                                   Chorus 2
              PM PM PM PM PM PM PM PM                                                     
  S E.  S E.  S  S  S  S  S  S  S  S     S E.  S E.  S E.  S E.     S E.  Q     H         
--------------------------------------|--------------------------|-----------------------|
--------------------------------------|--------------------------|-----------------------|
--------------------------------------|--------------------------|----2---L----10--------|
--------------------------------------|--------------------------|----2---L----10--------|
--3-----3-----3-----------3--2--------|--3-----3-----------------|----0---L-----8--------|
----1-----2------0--1--3--------5--3--|----1-----2-----3-----4---|--3--------------------|


                                                                ^ PM PM ^ PM PM ^ PM              
  H        H           S E.  E  E    H           S E.  Q        S S  S  S S  S  S S  E  E   Q     
--------------------|-------------------------|--------------|-----------------------------------|
--------------------|-------------------------|--------------|-----------------------------------|
-----------2--------|---------------10--------|--------------|-----------------------9--L-------|
--5--------2--------|----7---L--L--10--------|--------------|-----------------------9--L-------|
--5--------0--------|----7---L--L---8--------|--------------|-----------------------7--L-------|
--3-----------------|--3-5---L--L------------|--1-3---3~----|--0-0--0--0-0--0--0-0--------------|


  S E.  Q    Q.     E     E  E  Q    H           S E.  Q    Q.     E     E  E  Q    Q    Q     
-----------------------|----------------------|-----------------------|-----------------------|
-----------------------|----------------------|-----------------------|-----------------------|
--------------------7--|--L--7--L----5--------|--------------------7--|--L--7--L----5----5----|
----2---2-----------5--|--L--4--L----3--------|----2---2-----------5--|--L--4--L----3----3----|
----0---0----5---------|----------------------|----0---0----5---------|-----------------------|
--3----------3---------|----------------------|--3----------3---------|-----------------------|

                                                            Guitar Solo
  S E.  Q    Q.     E     E  E  Q    H           S E.  H.              H        H         
-----------------------|----------------------|---------------------|--------------------|
-----------------------|----------------------|---------------------|--------------------|
--------------------7--|--L--7--L----5--------|----2---L------------|--------------------|
----2---2-----------5--|--L--4--L----3--------|----2---L------------|--3--------5--------|
----0---0----5---------|----------------------|----0---L------------|--3--------5--------|
--3----------3---------|----------------------|--3------------------|--1--------3--------|


  S E.  H.              H        H           S E.  H.              H        H         
---------------------|--------------------|---------------------|--------------------|
---------------------|--------------------|---------------------|--------------------|
----2---L------------|--------------------|----2---L------------|--------------------|
----2---L------------|--3--------5--------|----2---L------------|--3--------5--------|
----0---L------------|--3--------5--------|----0---L------------|--3--------5--------|
--3------------------|--1--------3--------|--3------------------|--1--------3--------|


  S E.  H.              H        H           S E.  H.              W                 
---------------------|--------------------|---------------------|-------------------|
---------------------|--------------------|---------------------|-------------------|
----2---L------------|--------------------|----2---L------------|--L----------------|
----2---L------------|--3--------5--------|----2---L------------|--L----------------|
----0---L------------|--3--------5--------|----0---L------------|--L----------------|
--3------------------|--1--------3--------|--3------------------|-------------------|

                                                      Verse 3
  S E.  H.              W                   S E.  Q    Q    E  E     E  E  E  S S H          
---------------------|-------------------|-------------3----------|-------------------------|
---------------------|-------------------|-------------3----------|-------------------------|
----2---L------------|--L----------------|----2--------0-------7--|--L--7--L----------------|
----2---L------------|--L----------------|----2--------0-------5--|--L--4--L--0-2-3~--------|
----0---L------------|--L----------------|----0-------------------|-------------------------|
--3------------------|-------------------|--3----------3----------|-------------------------|


  S E.  Q    Q    E  E     E  E  E  S S Q     S S S S    S E.  Q    Q    E  E   
-------------3----------|-----------------------------|-------------3----L-----|
-------------3----------|-----------------------------|-------------3----L-----|
----2--------0-------7--|--L--7--L--------------------|----2---L----0----L--7--|
----2--------0-------5--|--L--4--L--0-2-3~----7-5-0---|----2---L----0----L--5--|
----0-------------------|---------------------------3-|----0---L---------------|
--3----------3----------|-----------------------------|--3----------3----L-----|


  E  E  E  S S Q       Q        E  E  E  E  Q.     E     H.              Q      
-----------------------------|-----------3--L---------|------------------------|
-----------------------------|-----------3--L---------|------------------------|
--7--7--L--------------------|-----2--L--0--L------7--|--L---------------------|
--5--4--L--0-2-3~------------|-----2--L--0--L------7--|--L---------------------|
-----------------------------|-----0--L------------5--|--L---------------------|
---------------------/17----|-----------3--L---------|---------------7g17----|


              PM PM PM PM PM PM PM PM                             
  S E.  S E.  S  S  S  S  S  S  S  S     S E.  S E.  S E.  S E.   
--------------------------------------|--------------------------|
--------------------------------------|--------------------------|
--------------------------------------|--------------------------|
--------------------------------------|--------------------------|
--3-----3-----3-----------3--2--------|--3-----3-----------------|
----1-----2------0--1--3--------5--3--|----1-----2-----3-----4---|

Chorus 3
              PM PM PM PM PM PM PM PM                                                     
  S E.  S E.  S  S  S  S  S  S  S  S     S E.  S E.  S E.  S E.     S E.  Q     H         
--------------------------------------|--------------------------|-----------------------|
--------------------------------------|--------------------------|-----------------------|
--------------------------------------|--------------------------|----2---L----10--------|
--------------------------------------|--------------------------|----2---L----10--------|
--3-----3-----3-----------3--2--------|--3-----3-----------------|----0---L-----8--------|
----1-----2------0--1--3--------5--3--|----1-----2-----3-----4---|--3--------------------|


                                                             ^ PM PM ^ PM PM ^ PM              
  H        H           S E.  Q     H           S E.  Q       S S  S  S S  S  S S  E  E   Q     
--------------------|-----------------------|-------------|-----------------------------------|
--------------------|-----------------------|-------------|-----------------------------------|
-----------2--------|----2---L----10--------|-------------|-----------------------9--L-------|
--5--------2--------|----2---L----10--------|-------------|-----------------------9--L-------|
--5--------0--------|----0---L-----8--------|-------------|-----------------------7--L-------|
--3-----------------|--3--------------------|--1-3---3----|--0-0--0--0-0--0--0-0--------------|

Out-chorus
  S E.  Q    Q.     E     E  E  Q    H           S E.  Q    Q.     E     E  E  Q    H         
-----------------------|----------------------|-----------------------|----------------------|
-----------------------|----------------------|-----------------------|----------------------|
--------------------7--|--L--7--L----5--------|--------------------7--|--L--7--L----5--------|
----2---2-----------5--|--L--4--L----3--------|----2---2-----------5--|--L--4--L----3--------|
----0---0----5---------|----------------------|----0---0----5---------|----------------------|
--3----------3---------|----------------------|--3----------3---------|----------------------|


  S E.  Q    Q.     E     E  E  Q    H           S E.  Q    Q.     E     E  E  Q    H         
-----------------------|----------------------|-----------------------|----------------------|
-----------------------|----------------------|-----------------------|----------------------|
--------------------7--|--L--7--L----5--------|--------------------7--|--L--7--L----5--------|
----2---2-----------5--|--L--4--L----3--------|----2---2-----------5--|--L--4--L----3--------|
----0---0----5---------|----------------------|----0---0----5---------|----------------------|
--3----------3---------|----------------------|--3----------3---------|----------------------|


  S E.  Q    Q.     E     E  E  Q    H           S E.  Q    Q.     E     E  E  Q    H         
-----------------------|----------------------|-----------------------|----------------------|
-----------------------|----------------------|-----------------------|----------------------|
--------------------7--|--L--7--L----5--------|--------------------7--|--L--7--L----5--------|
----2---2-----------5--|--L--4--L----3--------|----2---2-----------5--|--L--4--L----3--------|
----0---0----5---------|----------------------|----0---0----5---------|----------------------|
--3----------3---------|----------------------|--3----------3---------|----------------------|


  S E.  Q    Q.     E     E  E  Q    H           S E.  Q    Q.     E     E  E  Q    H         
-----------------------|----------------------|-----------------------|----------------------|
-----------------------|----------------------|-----------------------|----------------------|
--------------------7--|--L--7--L----5--------|--------------------7--|--L--7--L----5--------|
----2---2-----------5--|--L--4--L----3--------|----2---2-----------5--|--L--4--L----3--------|
----0---0----5---------|----------------------|----0---0----5---------|----------------------|
--3----------3---------|----------------------|--3----------3---------|----------------------|


  S E.  Q    Q.     E     E  E  Q    H           S E.  Q    Q.     E     E  E  Q    H         
-----------------------|----------------------|-----------------------|----------------------|
-----------------------|----------------------|-----------------------|----------------------|
--------------------7--|--L--7--L----5--------|--------------------7--|--L--7--L----5--------|
----2---2-----------5--|--L--4--L----3--------|----2---2-----------5--|--L--4--L----3--------|
----0---0----5---------|----------------------|----0---0----5---------|----------------------|
--3----------3---------|----------------------|--3----------3---------|----------------------|

                     
  S                                        E.  Q    Q.     E    
--------------------------------------------------------------||
--------------------------------------------------------------||
-----------------------------------------------------------7--||
-------------------------------------------2---2-----------5--||
-------------------------------------------0---0----5---------||
--3-------------------------------------------------3---------||




Lead Guitar
     m.15
  W                   H         E   E   E       E      W                  
E||---------------|-------------------------------|---------------------|
B||---------------|-----------13--12--------------|---------------------|
G||---------------|-------------------12----------|---------------------|
D||---------------|-----------------------/12g14--|---L~----------------|
A||---------------|-------------------------------|---------------------|
E||---------------|-------------------------------|---------------------|


   H         S   S  S  S  Q         E   E  Q    H           W                   W                 
--------------------------------|------------------------|-------------------|-------------------|
------------17b--L--L--L--L~----|---L-------------------|-------------------|-------------------|
--------------------------------|------------------------|-------------------|-------------------|
---L----------------------------|------------------------|-------------------|-------------------|
--------------------------------|------------------------|-------------------|-------------------|
--------------------------------|------------------------|-------------------|-------------------|


m.37
  H         H              E   E  Q    H           W                   W                 
-----------24br--------|---L-------------------|-------------------|-------------------|
-----------------------|------------------------|-------------------|-------------------|
-----------------------|------------------------|-------------------|-------------------|
-----------------------|------------------------|-------------------|-------------------|
-----------------------|------------------------|-------------------|-------------------|
-----------------------|------------------------|-------------------|-------------------|

m.56 (Solo 1)
  W                   W                   H         H           
-------------------|-------------------|-----------22br--------|
-------------------|-------------------|-----------------------|
-------------------|-------------------|-----------------------|
-------------------|-------------------|-----------------------|
-------------------|-------------------|-----------------------|
-------------------|-------------------|-----------------------|


   E     E    E   E    Q       S  S  S  S  
--22br--22b-----------19br-----L-19-17----|
---------------------------------------20-|
-------------12--------------------------|
-------------12--------------------------|
-------------12--------------------------|
------------------5/----------------------|


   |--3--|  |--3--|  |--3--|  |--3--|  |--3--|                                        
   S  S  S  S  S  S  S  S  S  S  S  S  S  S  S  S  S  Q         H          H          
--19-17-----------------------------------------------------|------------------------|
--------20-18-17----18-17----18-17--------------------------|--20b---------L~--------|
-----------------19-------19-------19-14-16-14-17-19-19~----|------------------------|
------------------------------------------------------------|------------------------|
------------------------------------------------------------|------------------------|
------------------------------------------------------------|------------------------|


                                                                      6/               
   Q     Q      Q      S  S   S  S     H           S  E.      Q       W                 
-----------------------------------|-------------------------------|-------------------|
---L-----------20b-----L--Lp-17----|-------------------------------|-------------------|
--------------------------------19-|--19br---------L-19brb----L----|-------------------|
-----------------------------------|-------------------------------|-------------------|
--------12------------------------|-------------------------------|--0----------------|
--------12------------------------|-------------------------------|-------------------|


         1/ 1/ 1/ 1/     1/                                            
  Q.     E   E   E   Q       E   E   H.              H.            S  E.    
--------------------------|-----------------------|------------------------|
--------------------------|-----------------------|------------------------|
--------------------------|------7b--L------------|--L~------------L-------|
--------------------------|-----------------------|------------------------|
--L------L---L---L---L----|--L--------------------|------------------12---|
--------------------------|-----------------------|------------------12---|


  1/                                                                                      
                                                                               |---3---|   
  H        S   E  T T  E  S S    S  E.  Q    H               H          Q      E   E   E   
------------------------------|------------------------|----------------------------------|
------------------------------|------------------------|---------------13b-----L--12------|
--0--------L------------------|------------------------|------------------------------12--|
-------------5g7--L-5~-L------|------------------------|----------------------------------|
--------------------------7-5-|--5h-7---L----L~--------|----------------------------------|
------------------------------|------------------------|--9g15---------------------------|


       /2           1/                                    PH                             
   |---3---|                                                                               
   E   E   E   Q     Q     Q        E      E       Q        H            W                 
--------------------------------|-------------------------------------|-------------------|
--------------------------------|------------------------<>20b--------|-------------------|
--------------------------------|-------------------------------------|-------------------|
--12--14---L---L-----L-----L----|---L---------------------------------|-------------------|
--------------------------------|-------------------------------------|-------------------|
--------------------------------|------12g17--12g17-----------------|-------------------|


m.93 (Solo 2)
  H         H              E   E   S    S  E   H             H          S  E.    Q      
-----------22br--------|--22--20--20br--L--L---L~--------|--19b--------17--------------|
-----------------------|---------------------------------|----------------20b----L~----|
-----------------------|---------------------------------|-----------------------------|
-----------------------|---------------------------------|-----------------------------|
-----------------------|---------------------------------|-----------------------------|
-----------------------|---------------------------------|-----------------------------|


                         |--3-|         |--3-|        |--3-|                   
   Q     Q     Q     E   S S  S    E.   T T  T S  S S T T  T S  S E    S E.    
-------------------------5------|-------5---------5-5-5---------5--------8b---|
---L-----------8b----L~----8p-5-|--8b-----8p-5-8b-------8p-5-8b---8b~---------|
--------12---------------------|---------------------------------------------|
--------12---------------------|---------------------------------------------|
--------12----------------------|---------------------------------------------|
--------------------------------|---------------------------------------------|


                                                                            W     
                                                  |--3-| |--3--|                    
  E.  S S S  S S S S   S S T  T T T T  T  T  T    S  S S S  S  S S S S S Q    Q     
--L-----5-8b-5---5-----------------------------|-----------------------------------|
------8--------8-5---------------------5h-8p-5-|-----5-----------------------------|
-------------------7br-L-5-7p-5---5-7b---------|--7b---7-5h-7p-5-5-7-5---5----L----|
--------------------------------7--------------|-----------------------7-----------|
-----------------------------------------------|-----------------------------------|
-----------------------------------------------|-----------------------------------|


  |-3-| |-3-|                                                
  S S S S S S T T T T T T T T T T T T T T T T  S T  T  T  S. 
------------------------------------------------------------|
----------------------------5-----5-6-7-6-5---10-8-10-12-10-|
--------5---5-7-4-5-7-4-5-7---5-7-----------7---------------|
--7-5-7---7-------------------------------------------------|
------------------------------------------------------------|
------------------------------------------------------------|


   S  T  T  S  T  T  S  T  T  E   Q      Q         Q      E   E    Q       S  E.    
-----------------------------------------------|--17b----17--17b---Lpb-----L-17---|
--13-12-13-15-13-15-17-15-17-18--18b-----------|-----------------------------------|
----------------------------------------12----|-----------------------------------|
----------------------------------------12----|-----------------------------------|
----------------------------------------12----|-----------------------------------|
-----------------------------------------------|-----------------------------------|


   T  T  T  T  T  T  T  T  T  T  T  T  T  T  T  T  T  T  T  T  T  T  T  T  Q      
--19-17-15----17-15-------15-----------------------------------------------------|
-----------20-------18-17----18-17-15-18-17-15----17-15-------15-----------------|
-----------------------------------------------17-------16-14----17-16-14-16b----|
---------------------------------------------------------------------------------|
---------------------------------------------------------------------------------|
---------------------------------------------------------------------------------|


   |--3--|  |--3--|  |--3--|  |--3--|                |---3---|              |---3---|      
   S  S  S  S  S  S  S  S  S  S  S  S  T  T  T   T   T   T   T  T  T  T  T  T   T   T  E   
--------12-15-12----------12-15-12----------12h-13S-19p-17p-15------------------------19--|
-----13----------13----13----------13----13--------------------18-17-15----15h-17h-19-----|
--14----------------14----------------14--------------------------------17----------------|
------------------------------------------------------------------------------------------|
------------------------------------------------------------------------------------------|
------------------------------------------------------------------------------------------|


                                 |--3--|  |--3--|             
   T   T   T   T  T   T   T   T  S  S  S  S  S  S  H          
--------------------------------------17-22-17----20b--------|
--15h-17h-18s-20-17h-18h-20s-22----18----------18------------|
--------------------------------19---------------------------|
-------------------------------------------------------------|
-------------------------------------------------------------|
-------------------------------------------------------------|


   S  T  T  S  T  T  S  T  T  S  T  T  S  T  T  S  T  T  S  T  T  S  T  T  
--22-19-20-22-19-20-22-19-20-22-19-20-22-19-20-22-19-20-22-19-20-22-19-20-|
--------------------------------------------------------------------------|
--------------------------------------------------------------------------|
--------------------------------------------------------------------------|
--------------------------------------------------------------------------|
--------------------------------------------------------------------------|


   S  T  T  S  T  T  S  T  T  S  T  T  S  T  T  S  T  T  S  T  T  S  T  T  
--22-19-20-22-19-20-22-19-20-22-19-20-22-19-20-22-19-20-22-19-20-22-19-20-|
--------------------------------------------------------------------------|
--------------------------------------------------------------------------|
--------------------------------------------------------------------------|
--------------------------------------------------------------------------|
--------------------------------------------------------------------------|


   S  T  T  S  T  T  S  T  T  S  T  T  S  T  T  S  T  T  S  T  T  S  T  T  
--22-19-20-22-19-20-22-19-20-22-19-20-22-19-20-22-19-20-22-19-20-22-19-20-|
--------------------------------------------------------------------------|
--------------------------------------------------------------------------|
--------------------------------------------------------------------------|
--------------------------------------------------------------------------|
--------------------------------------------------------------------------|


   S  T  T  S  T  T  S  T  T  S  T  T  S  T  T  S  T  T  S  T  T  S  T  T  
--22-19-20-22-19-20-22-19-20-22-19-20-22-19-20-22-19-20-22-19-20-22-19-20-|
--------------------------------------------------------------------------|
--------------------------------------------------------------------------|
--------------------------------------------------------------------------|
--------------------------------------------------------------------------|
--------------------------------------------------------------------------|


   S  T  T  S  T  T  S  T  T  S  T  T  S  T  T  S  T  T  S  T  T  S  T  T   
--22-19-20-22-19-20-22-19-20-22-19-20-22-19-20-22-19-20-22-19-20-22-19-20-||
--------------------------------------------------------------------------||
--------------------------------------------------------------------------||
--------------------------------------------------------------------------||
--------------------------------------------------------------------------||
--------------------------------------------------------------------------||



Clean Guitar
     m.10
  W                   E   E   Q    E   E   Q       E   E   H.            
E||---------------|-----10---L-----------------|-----10---L------------|
B||---------------|-----10---L-------12---L----|-----10---L------------|
G||---------------|-----10---L-------12---L----|------9---L------------|
D||---------------|-----10---L-------12---L----|------7---L------------|
A||---------------|------8---L-------10---L----|-----------------------|
E||---------------|----------------------------|-----------------------|


  E   E   Q    E   E   Q       E   E   H.              E   E   Q    E   E   Q     
-----10---L-----------------|-----10---L------------|-----10---L-----------------|
-----10---L-------12---L----|-----10---L------------|-----10---L-------12---L----|
-----10---L-------12---L----|------9---L------------|-----10---L-------12---L----|
-----10---L-------12---L----|------7---L------------|-----10---L-------12---L----|
------8---L-------10---L----|-----------------------|------8---L-------10---L----|
----------------------------|-----------------------|----------------------------|


  E   E   H.              E   E   Q    E   E   Q       E   E   H.              W                 
-----10---L------------|-----10---L-----------------|-----10---L------------|-------------------|
-----10---L------------|-----10---L-------12---L----|-----10---L------------|-------------------|
------9---L------------|-----10---L-------12---L----|------9---L------------|-------------------|
------7---L------------|-----10---L-------12---L----|------7---L------------|-------------------|
-----------------------|------8---L-------10---L----|-----------------------|-------------------|
-----------------------|----------------------------|-----------------------|-------------------|



Duration Legend
---------------
W - whole
H - half
Q - quarter
E - 8th
S - 16th
T - 32nd
X - 64th
. - note dotted
|-n-|  - n-tuplets


Tablature Legend
----------------
L - tied note
x - dead note
g - grace note
(n) - ghost note
> - accentuded note
NH - natural harmonic
AH - artificial harmonic
TH - tapped harmonic
SH - semi harmonic
PH - pitch harmonic
h - hammer on
p - pull off
b - bend
br - bendRelease
pb - preBend
pbr - preBendRelease
brb - bendReleaseBend
n/ - tremolo bar dip
n - tremolo bar dive
-/n - tremolo bar Release up
/n - tremolo bar inverted dip
/n - tremolo bar return
-n - tremolo bar Release down
S - shift slide
s - legato slide
/ -  slide into from below or out of upwards
 -  slide into from above or out of downwards
~ - vibrato
W - wide vibrato
tr - trill
TP - tremolo picking
T - tapping
S - slap
P - pop
< - fade in
^ - brush up
v - brush down
Автор: muzzon