Gitarizm

» Тексты и аккорды к песням для гитары » Zeno - Out In The Night bass (табулатура)

Гитаризм

Конкурс на лучший кавер
Здесь могла бы быть Ваша реклама!
Хотите узнать как играть на гитаре? Гитаризм — лучший самоучитель гитары для начинающих!

Zeno - Out In The Night bass (табулатура)


-------------------------------------------------------------------------------
			     OUT IN THE NIGHT - Zeno
-------------------------------------------------------------------------------

Tabbed By : Isaias Garcia

Tuning: Standard, tempo = 95 bpm

http://www.zenoroth.com/zeno.htm


   Intro
     W                   W                   W                   W                 
G||-------------------|-------------------|-------------------|-------------------|
D||-------------------|-------------------|-------------------|-------------------|
A||-------------------|-------------------|-------------------|-------------------|
E||-------------------|-------------------|-------------------|-------------------|
B||-------------------|-------------------|-------------------|-------------------|


  W                   W                   E  E  E  E  E  E  E  E     E  E  E  E  E  E  E  E   
-------------------|-------------------|--------------------------|--------------------------|
-------------------|-------------------|--------------------------|--------------------------|
-------------------|-------------------|--------------------------|--------------------------|
-------------------|-------------------|--1--1--1--1--3--3--3--3--|--5--5--5--5--5--5--5--5--|
-------------------|-------------------|--------------------------|--------------------------|


  E  E  E  E  E  E  E  E     E  E  E  E  E  E  E  E     E  E  E  E  E  E  E  E   
--------------------------|--------------------------|--------------------------|
--------------------------|--------------------------|--------------------------|
--------------------------|--------------------------|--------------------------|
--1--1--1--1--3--3--3--3--|--5--5--5--5--5--5--5--0--|--1--1--1--1--3--3--3--3--|
--------------------------|--------------------------|--------------------------|


  E  E  E  E  E  E  E  E     E  E  E  E  E  E  E  E     E  E  E  E  E  E  E  E   
--------------------------|--------------------------|--------------------------|
--------------------------|--------------------------|--------------------------|
--------------------------|--------------------------|--------------------------|
--5--5--5--5--5--5--5--5--|--1--1--1--1--3--3--3--3--|--5--5--5--5--5--5--5--0--|
--------------------------|--------------------------|--------------------------|


  E  E  E  E  E  E  E  E     E  E  E  E  E  E  E  E     E  E  E  E  E  E  E  E   
--------------------------|--------------------------|--------------------------|
--------------------------|--------------------------|--------------------------|
--------------------------|--------------------------|--------------------------|
--1--1--1--1--3--3--3--3--|--5--5--5--5--5--5--5--5--|--1--1--1--1--3--3--3--3--|
--------------------------|--------------------------|--------------------------|

                           Verse 1
  E  E  E  E  E  E  E  E     E  E  E  E  E  E  E  E     E  E  E  E  E  E  E  E   
--------------------------|--------------------------|--------------------------|
--------------------------|--------------------------|--------------------------|
--------------------------|--------------------------|--------------------------|
--5--5--5--5--5--5--5--3--|--5--5--5--5--5--5--5--5--|--5--5--5--5--5--5--5--5--|
--------------------------|--------------------------|--------------------------|


  E  E  E  E  E  E  E  E     E  E  E  E  E  E  E  E     E  E  E  E  E  E  E  E   
--------------------------|--------------------------|--------------------------|
--------------------------|--------------------------|--------------------------|
--------------------------|--------------------------|--------------------------|
--5--5--5--5--5--5--5--5--|--5--5--5--5--5--5--5--5--|--5--5--5--5--5--5--5--5--|
--------------------------|--------------------------|--------------------------|


  E  E  E  E  E  E  E  E     E  E  E  E  Q    E  E     H.            Q      
--------------------------|-------------------------|----------------------|
--------------------------|-------------------------|----------------------|
--------------------------|----------------------5--|--L-------------------|
--5--5--5--5--5--5--5--5--|--L--5--L--3--L----------|---------------12----|
--------------------------|-------------------3-----|----------------------|


  S E.  S E.  S S S S S S S S    S E.  S E.  S E.  S E.     S E.  S E.  S S S S S S S S  
------------------------------|--------------------------|------------------------------|
------------------------------|--------------------------|------------------------------|
--3-----3-----3-------3-2-----|--3-----3-----3-----3-----|--3-----3-----3-------3-2-----|
----1-----2-----0-1-3-----5-3-|----1-----2-----3-----4---|----1-----2-----0-1-3-----5-3-|
------------------------------|--------------------------|------------------------------|

                           Chorus 1
  S E.  S E.  S E.  S E.     S E.  Q    H           Q.     E  Q    E  E     S E.  Q    H         
--------------------------|----------------------|-----------------------|----------------------|
--------------------------|----------------------|-----------------------|----------------------|
--3-----3-----------------|-------------8--------|-----------------------|-------------8--------|
----1-----2-----3-----4---|--3-5---L-------------|--3------3--5----5--3--|--3-5---L-------------|
--------------------------|----------------------|-----------------------|----------------------|


  S  E.   S E.     S E  S S S S S Q    Q       S E.  E  E  E  E  E  E     E  E  E  E   H         
----------------|---------------------------|--------------------------|------------------------|
----------------|---------------------------|--------------------------|------------------------|
--8-10---10-----|---------------------------|--------------------------|---------------8--------|
----------------|--5-0--0-0-0-0-0-0---------|--3-5---5--5--5--5--5--5--|--5--5--5--5/-----------|
------------8---|---------------------------|--------------------------|------------------------|

Verse 2
  E  E  E  E  E  E  E  E     E  E  E  E  E  E  E  E     E  E  E  E  E  E  E  E   
--------------------------|--------------------------|--------------------------|
--------------------------|--------------------------|--------------------------|
--------------------------|--------------------------|--------------------------|
--5--5--5--5--5--5--5--5--|--5--5--5--5--5--5--5--5--|--5--5--5--5--5--5--5--5--|
--------------------------|--------------------------|--------------------------|


  E  E  E  S S S S S S S S S  S    E  E  E  E  E  E  E  E     E  E  E  E  E  E  E  E   
--------------------------------|--------------------------|--------------------------|
--------------------------------|--------------------------|--------------------------|
---------------2-----3-----5h-7-|--------------------------|--------------------------|
--5--5--5--5-5---5-5---5-5------|--5--5--5--5--5--5--5--5--|--5--5--5--5--5--5--5--5--|
--------------------------------|--------------------------|--------------------------|


  E  E  E  E  Q    E  E     H.            Q        S E.  S E.  S S S S S S S S  
-------------------------|----------------------|------------------------------|
-------------------------|----------------------|------------------------------|
----------------------5--|--L-------------------|--3-----3-----3-------3-2-----|
--L--5--L--3--L----------|---------------12----|----1-----2-----0-1-3-----5-3-|
-------------------3-----|----------------------|------------------------------|


  S E.  S E.  S E.  S E.     S E.  S E.  S S S S S S S S    S E.  S E.  S E.  S E.   
--------------------------|------------------------------|--------------------------|
--------------------------|------------------------------|--------------------------|
--3-----3-----------------|--3-----3-----3-------3-2-----|--3-----3-----------------|
----1-----2-----3-----4---|----1-----2-----0-1-3-----5-3-|----1-----2-----3-----4---|
--------------------------|------------------------------|--------------------------|

Chorus 2
  S E.  Q    H           Q.     E  Q    E  E     S E.  Q     H           S E.  S E.   
----------------------|-----------------------|-----------------------|--------------|
----------------------|-----------------------|-----------------------|--------------|
-------------8--------|-----------------------|-----------------------|--------------|
--3-5---L-------------|--3------3--5----5--3--|--3-5---LS----1--------|--1-3---3-3---|
----------------------|-----------------------|-----------------------|--------------|


  S E  S S S S S Q    Q       S E.  E  E  E  E  E  E     E  E  E  E  E  E  E  E   
---------------------------|--------------------------|--------------------------|
---------------------------|--------------------------|--------------------------|
---------------------------|--------------------------|--------------------------|
--5-0--0-0-0-0-0-0---------|--3-5---5--5--5--5--5--5--|--5--5--5--5--5--5--5--5--|
---------------------------|--------------------------|--------------------------|


  S E.  E  E  E  E  E  E     E  E  E  E   Q    Q       S E.  E  E  E  E  E  E   
--------------------------|-------------------------|--------------------------|
--------------------------|-------------------------|-----------------------5--|
--------------------------|--------------/8---------|--------------------------|
--3-5---5--5--5--5--5--5--|--5--5--5--5--------1----|--3-5---5--5--3--3--3-----|
--------------------------|-------------------------|--------------------------|

                       Guitar Solo
  E  E  Q    H           S E.  H.              H        H           S E.  H.            
----------------------|---------------------|--------------------|---------------------|
--L--4--L----3--------|---------------------|--------------------|---------------------|
----------------------|---------------------|--------------------|---------------------|
----------------------|--3-5---L------------|--1--------3--------|--3-5---L------------|
----------------------|---------------------|--------------------|---------------------|


  H        H           S E.  H.              H        H           S E.  H.            
--------------------|---------------------|--------------------|---------------------|
--------------------|---------------------|--------------------|---------------------|
--------------------|---------------------|--------------------|---------------------|
--1--------3--------|--3-5---L------------|--1--------3--------|--3-5---L------------|
--------------------|---------------------|--------------------|---------------------|


  H        H           S E.  H.              H        H           S E.  H.            
--------------------|---------------------|--------------------|---------------------|
--------------------|---------------------|--------------------|---------------------|
--------------------|---------------------|--------------------|---------------------|
--5--------5--------|--3-5---L------------|--5--------5--------|--3-5---L------------|
--------------------|---------------------|--------------------|---------------------|


  H        H           S E.  Q    Q    E  E     E  E  E  S S Q    Q       S E.  Q    Q    E  E   
--------------------|------------------------|-------------------------|------------------------|
--------------------|------------------------|-------------------------|------------------------|
--------------------|------------------------|-----------5-7-8----8----|------------------------|
--5--------5--------|--3-5--------5-------5--|--L--5--L----------------|--3-5--------5-------5--|
--------------------|------------------------|-------------------------|------------------------|


  E  E  E  S S Q    S S S S    E  E  E  E  E  E  E  E     E  E  E  S S Q     Q      
----------------------------|--------------------------|---------------------------|
--------------------7-5-----|-----------------------5--|--L--4--L------------------|
-----------5-7-8--------5-3-|--------------------------|-----------5-7-8-----------|
--L--5--L-------------------|--5--5--5--5--3--3--3-----|--------------------12----|
----------------------------|--------------------------|---------------------------|


  E  E  E  E  E  E  E  E     H.            Q        S E.  S E.  S S S S S S S S  
--------------------------|----------------------|------------------------------|
--------------------------|----------------------|------------------------------|
--------------------3--5--|--L-------------------|--3-----3-----3-------3-2-----|
-----5--L--3--L--5--------|---------------12----|----1-----2-----0-1-3-----5-3-|
--------------------------|----------------------|------------------------------|


  S E.  S E.  S E.  S E.     S E.  S E.  S S S S S S S S    S E.  S E.  S E.  S E.   
--------------------------|------------------------------|--------------------------|
--------------------------|------------------------------|--------------------------|
--3-----3-----------------|--3-----3-----3-------3-2-----|--3-----3-----------------|
----1-----2-----3-----4---|----1-----2-----0-1-3-----5-3-|----1-----2-----3-----4---|
--------------------------|------------------------------|--------------------------|


Chorus 3                                                                   >                    
  S E.  E  E   H           Q.     E  Q    E  E     S E.  Q    Q    Q       S E.  S E.   
------------------------|-----------------------|-----------------------|--------------|
------------------------|-----------------------|------------------3----|--------------|
---------------8--------|-----------------------|-----------------------|--------------|
--3-5---L--L/-----------|--3------3--5----5--3--|--3-5---L----1---------|--1-3---3-3---|
------------------------|-----------------------|-----------------------|--------------|

                              Out-chorus
  S E  S S S S S  Q     Q       S E.  E  E  E  E  E  E     E  E  E  E  E  E  E  E   
-----------------------------|--------------------------|--------------------------|
-----------------------------|--------------------------|--------------------------|
-----------------------------|--------------------------|--------------------------|
--0-0--0-0-0-0-0-12---------|--3-5---5--5--5--5--5--5--|--5--5--5--5--5--5--5--5--|
-----------------------------|--------------------------|--------------------------|


  S E.  E  E  E  E  E  E     E  E  E  E   Q    Q       S E.  E  E  E  E  E  E   
--------------------------|-------------------------|--------------------------|
--------------------------|-------------------------|--------------------------|
--------------------------|---------------8---------|--------------------------|
--3-5---5--5--5--5--5--5--|--5--5--5--5/-------1----|--3-5---5--5--5--5--5--5--|
--------------------------|-------------------------|--------------------------|


  E  E  E  E  E  E  E  E     S E.  E  E  E  E  E  E     E  E  E    S S Q    Q     
--------------------------|--------------------------|---------------------------|
--------------------------|--------------------------|---------------------------|
--------------------------|--------------------------|---------------7-8---------|
--5--5--5--5--5--5--5--5--|--3-5---5--5--5--5--5--5--|--5--5--5S--10--------1----|
--------------------------|--------------------------|---------------------------|


  S E.  E  E  E  E  E  E     E  E  E  E  E  E  E  E     S E.  E  E  E  E  E  E   
--------------------------|--------------------------|--------------------------|
--------------------------|--------------------------|--------------------------|
--------------------------|--------------------------|--------------------------|
--3-5---5--5--5--5--5--5--|--5--5--5--5--5--5--5--5--|--3-5---5--5--5--5--5--5--|
--------------------------|--------------------------|--------------------------|


  E  E  E    S S Q    Q       S E.  E  E  E  E  E  E     E  E  E  E  E  E  E  E   
---------------------------|--------------------------|--------------------------|
---------------------------|--------------------------|--------------------------|
---------------7-8---------|--------------------------|--------------------------|
--5--5--5S--10--------1----|--3-5---5--5--5--5--5--5--|--5--5--5--5--5--5--5--5--|
---------------------------|--------------------------|--------------------------|


  S E.  E  E  E  E  E  E     E  E  E    S S Q    Q       S E.  E  E  E  E  E  E   
--------------------------|---------------------------|--------------------------|
--------------------------|---------------------------|--------------------------|
--------------------------|---------------7-8---------|--------------------------|
--3-5---5--5--5--5--5--5--|--5--5--5S--10--------1----|--3-5---5--5--5--5--5--5--|
--------------------------|---------------------------|--------------------------|


  E  E  E  E  E  E  E  E     S E.  E  E  E  E  E  E     E  E  E  E  E  E  E  E   
--------------------------|--------------------------|--------------------------|
--------------------------|--------------------------|--------------------------|
--------------------------|--------------------------|--------------------------|
--5--5--5--5--5--5--5--5--|--3-5---5--5--5--5--5--5--|--5--5--5--5--5--5--5--5--|
--------------------------|--------------------------|--------------------------|

   
  S E.  E  E  E  E  E  E                                          
----------------------------------------------------------------||
----------------------------------------------------------------||
----------------------------------------------------------------||
--3-5---5--5--5--5--5--5----------------------------------------||
----------------------------------------------------------------||




Duration Legend
---------------
W - whole
H - half
Q - quarter
E - 8th
S - 16th
T - 32nd
X - 64th
. - note dotted
|-n-|  - n-tuplets


Tablature Legend
----------------
L - tied note
x - dead note
g - grace note
(n) - ghost note
> - accentuded note
NH - natural harmonic
AH - artificial harmonic
TH - tapped harmonic
SH - semi harmonic
PH - pitch harmonic
h - hammer on
p - pull off
b - bend
br - bendRelease
pb - preBend
pbr - preBendRelease
brb - bendReleaseBend
n/ - tremolo bar dip
n - tremolo bar dive
-/n - tremolo bar Release up
/n - tremolo bar inverted dip
/n - tremolo bar return
-n - tremolo bar Release down
S - shift slide
s - legato slide
/ -  slide into from below or out of upwards
 -  slide into from above or out of downwards
~ - vibrato
W - wide vibrato
tr - trill
TP - tremolo picking
T - tapping
S - slap
P - pop
< - fade in
^ - brush up
v - brush down
Автор: muzzon