Gitarizm

» Тексты и аккорды к песням для гитары » Zelle - Lihim (табулатура)

Гитаризм

Конкурс на лучший кавер
Здесь могла бы быть Ваша реклама!
Хотите узнать как играть на гитаре? Гитаризм — лучший самоучитель гитары для начинающих!

Zelle - Lihim (табулатура)


Lihim
by: Zelle


Tabbed by: D.c Omoso

NOTE: i converted the violin parts in the song to guitar 1
      i also simplified the tabs
      i hope ya'll like it 

Para po ito sa taong ngturo mg gitara skin...

Mr. Thomas Jacob Olisa
09282529009 hehe....

para aman sa taong sinamahan akong bumili ng gitara sa LUMANOG (V. mapa)

Mr. Kevin Mutoc
ehehe....

and nga pla...hanap me gf
e2
09156779365
09198271840
add me up...
[email protected]

first tab ko po toh...ehehe...hope u'll like it


Intro:

Guitar 1
e|--------------------------------|
B|-------------------------23----|
G|--------3-2~--3/2---------------|   x2 
D|--3-2---------------------------|
A|--------------------------------|
E|--------------------------------|


Verse 1:

Guitar 1 - Silent

Guitar 2 (do strumming)
     Em    C
e|--0000--0000--|
B|--0000--1111--|
G|--0000--0000--| (do chord pattern 4x)
D|--2222--2222--|
A|--2222--3333--|
E|--0000--------|


ito'y istorya....


Chorus:

Guitar 2
     Em    G6    D     C         
e|--0000--0000--0000--0000------------------|
B|--0000--0000--0000--1111------------------|
G|--0000--0000--0000--0000------------------|
D|--2222--0000--7777--2222------------------|
A|--2222--2222--5555--3333------------------|
E|--0000--3333------------------------------|





mahal kita...



Guitar 1
e|--------------------------------|
B|-------------------------23----|
G|--------3-2~--3/2---------------|   x2 
D|--3-2---------------------------|
A|--------------------------------|
E|--------------------------------|



Verse 2:

Guitar 1 - Silent

Guitar 2 (do strumming)
     Em    C
e|--0000--0000--|
B|--0000--1111--|
G|--0000--0000--| (do chord pattern 4x)
D|--2222--2222--|
A|--2222--3333--|
E|--0000--------|




Chorus:

Guitar 2
     Em    G6    D     C         
e|--0000--0000--0000--0000------------------|
B|--0000--0000--0000--1111------------------|
G|--0000--0000--0000--0000------------------|
D|--2222--0000--7777--2222------------------|
A|--2222--2222--5555--3333------------------|
E|--0000--3333------------------------------|




Guitar 1
e|--------------------------------|
B|-------------------------2-3----|
G|--------3-2~--3/2---------------|   x2 
D|--3-2---------------------------|
A|--------------------------------|
E|--------------------------------|



(end with D chord)
Автор: muzzon