Gitarizm

Гитаризм

Конкурс на лучший кавер
Здесь могла бы быть Ваша реклама!
Хотите узнать как играть на гитаре? Гитаризм — лучший самоучитель гитары для начинающих!

Zeke - Twisted bass (табулатура)


Zeke
Song:      Twisted
Album:     Kicked In The Teeth
Tabbed by: BassD
				>=play a couple of time
				 and /=slide to
Introx2
G|-------|---------------------------------------|
D|-------|---------------------------------------|
A|-------|----5---4>----2---4>-------------------|
E|-4>----|-4>---4----4>---4----------------------|

G|-----------------------------------------------|
D|-----------------------------------------------|
A|----5---4-4-2-2-3-3-4-4------------------------|
E|-4>---4-----------------1-2-3-4----------------|

Verse
G|--------------------------------------------------|
D|--------------------------------------------------|
A|------2---2-4----2>------2---2-4----2>------------|
E|-4>-4---4-----4>----4>-4---4-----4>---------------|

G|---------------------------------------------------------|
D|---------------------------------------------------------|
A|---------------------6>-2>-4>--6>-2>-4>--6>-2>-4>--6>----|
E|-4-4--4-4--4-4-2-4/6-------------------------------------|

(Intro)

Verse 2
G|------------------------------------------------------------|
D|------------------------------------------------------------|
A|------2---2-4----2>------2---2-4----2>----------------------|
E|-4>-4---4-----4>----4>-4---4-----4>-------------------------|

G|------------------------------------------------------------|
D|------------------------------------------------------------|
A|---------------------------4--------------------------------|
E|-4-4--4-4--4-4--4-4-4>--------------------------------------|

G|------------------------------------------------------------|
D|------------------------------------------------------------|
A|----143----4>----143----4>--------------------------------|
E|-4>------4>----4>------4>-----------------------------------|

End
G|--------------------------------|
D|--------------------------------|
A|-4>--------2--------------------|
E|----4ring----4-2-4--------------|


Hey!Got any question?Email me=rancid_ska@hotmail.com

===============================================================================
Автор: muzzon