Gitarizm

» Тексты и аккорды к песням для гитары » Zee Avi - Bitter Heart (табулатура)

Гитаризм

Конкурс на лучший кавер
Здесь могла бы быть Ваша реклама!
Хотите узнать как играть на гитаре? Гитаризм — лучший самоучитель гитары для начинающих!

Zee Avi - Bitter Heart (табулатура)


Bitter Heart by Zee Avi
Tabs by garychia

Please email your comments and changes to chia.gary[at]hotmail.com. Here's how I 
play it http://www.youtube.com/watch?v=tj9NblBJG8M

Enjoy!

Here's the plucking part of the song. Repeat throughout the verse.

Verse
----------------------------------------------------------------------0---0--|
----3---3------3---3------3---3------3---3------3---3------3---3------3---3--|
----2---2------2---2------4---4------4---4------0---0------0---0-------------|
--0---4------0---4----------4----------4----------0----------0----------2----|
------------------------2----------2--------------------------------0--------|
----------------------------------------------3----------3-------------------|
  D   D/F#   D   D/F#   Bm  Bm/F#  Bm  Bm/F#  G   G/D    G   G/D    A   A/E

----0---0----|
----3---3----|
-------------| (repeat..)
------2------|
--0----------|
-------------|
  A   A/E

Chorus
-------------------------0---0------0---0----|
---3---3------3---3------3---3------3---3----|
---0---0------0---0--------------------------| (repeat..)
-----0----------0----------2----------2------|
-----------------------0----------0----------|
-3----------3--------------------------------|

 G   G/D    G   G/D    A   A/E    A   A/E


VERSE:

     D                           Bm
Sun rays come down as seen when they hit the ground,
                G                       A
Children spinning around till they fall down down down.
   D                            Bm
I wait for you: it's been two hours now,
                   G
You're still somewhere in town,
              A
Your dinners getting cold.
   D                      Bm
I rest my case you are always this late,
                  G                  A                     A/G#
And you know how much I hate waiting around 'round 'round,


Chorus:
G                    A                           G
Bitter heart, bitter heart tries to keep it all inside,
                       A                                G
Bitter heart, bitter heart shadows will help you try to hide,
                          A                               G
Bitter heart, my bitter heart is gettin' just a little fragile,
                      A
Bitter heart, bitter heart of mine.


Verse:
And then you come and tell me the same reason as you did yesterday,
So tell me whats her name?
Doo doo da dum, doo doo da dum, doo doo doo doo doo doo da da dum dum,
da da da da dum, da da da da dum, da da da da dum.


Chorus:
Bitter heart, bitter heart tries to keep it all inside
Bitter heart, bitter heart shadows will help you try to hide,
Bitter heart, my bitter heart is just getting a little fragile
                                       D          A       G       A
Bitter heart, bitter heart of mine, of mine, of mine, of mine, of mine,
D
of mine.
Автор: muzzon