Gitarizm

Гитаризм

Конкурс на лучший кавер
Здесь могла бы быть Ваша реклама!
Хотите узнать как играть на гитаре? Гитаризм — лучший самоучитель гитары для начинающих!
Загрузка...

Zebrahead - Wannabe bass (табулатура)


-------------------------------------------------------------------------------
Wannabe - Zebrahead
-------------------------------------------------------------------------------

Zebrahead - Wannabe (spice girls cover)

Cool song

Tabbed by: Daniel Ortega G.
E-mail: daniel_ortega911@hotmail.com

Intro

G|-----------------------------------------------------|
D|-----------------------------------------------------|
A|-------------NO-BASS---------------------------------|
E|-----------------------------------------------------|

Pre Verse
G|--------------------------------------|
D|--------------------------------------|
A|-----------5---5--|7|--7--------------|
E|---|7|---7---------------5-5--5-6-7---|         |#| = means stop a little after 
the note
 "I'll Tell You What I want......"


Verse
G|----------------------------------|
D|----------------------------------|
A|-----------------------------2----|
E|--2--2------4--------0--0---------|
"If you want my future..."


Chorus
G|--------------------------------------------------------------|
D|--------------------------------------------------------------|
A|-----------------------------------------------2-2-2-2-2-2-2--|
E|--2-2-2-2-2-2--4-4-4-4-4-4-4-4--0-0-0-0-0-0-0-----------------|
"If u wanna be my lova..."
Автор: muzzon