Gitarizm

Гитаризм

Конкурс на лучший кавер
Здесь могла бы быть Ваша реклама!
Хотите узнать как играть на гитаре? Гитаризм — лучший самоучитель гитары для начинающих!

Zebrahead - Wake Me Up bass (табулатура)


INTRO

G------------------------------------------|
D------------------------------------------|
A----------44-44-44--------66-66-66--------|
E--66-66-66--------22-22-22--------6664433-|

VERSE

G---------------------------------------------|
D---------------------------------------------|
A----------------------------66666666----4468-|
E--66666666-44444444-22222222--------6646-----|

----------------------------------------------|
----------------------------------------------|
---------44-44-44--------66-66-66-------------|
-66-66-66--------22-22-22--------6664433------|

----------------------------------------------------|
------------------44-44-4488665556------------------|
-66-66-66-99886668----------------22-22-22-66443334-|
----------------------------------------------------|

-------------------|
-------------------|
-22-22-22-66443334-|
-------------------|

PRE-CHORUS

G-------------------|
D-------------------|
A-------------------|
E--66-66-66-66-6-6--|

CHORUS

G-------------------------------------|--------------------------|
D---------------------------------(x2)|----------------------(x2)|
A--44444444---------------------------|--------------------------|
E----------22222222-66666666-44444444-|-6666666-4444444-2222222--|

VERSE

G---------------------------------------------|
D---------------------------------------------|
A----------------------------66666666----4468-|
E--66666666-44444444-22222222--------6646-----|

----------------------------------------------|
----------------------------------------------|
---------44-44-44--------66-66-66-------------|
-66-66-66--------22-22-22--------6664433------|

----------------------------------------------------|
------------------44-44-4488665556------------------|
-66-66-66-99886668----------------22-22-22-66443334-|
----------------------------------------------------|

-------------------|
-------------------|
-22-22-22-66443334-|
-------------------|

PRE-CHORUS

G-------------------|
D-------------------|
A-------------------|
E--66-66-66-66-6-6--|

CHORUS

G-------------------------------------|--------------------------|
D---------------------------------(x2)|----------------------(x2)|
A--44444444---------------------------|--------------------------|
E----------22222222-66666666-44444444-|-6666666-4444444-2222222--|

GUITAR SOLO (x2)

G-----------------------------------|
D--------------------------11111111-|
A----------44444444-----------------|
E--66666666--------22222222---------|

BRIDGE

----------------------------------------------|
----------------------------------------------|
---------44-44-44--------66-66-66-------------|
-66-66-66--------22-22-22--------6664433------|

----------------------------------------------|
----------------------------------------------|
---------44-44-44--------66-66-66-------------|
-66-66-66--------22-22-22--------6664433------|

----------------------------------------------|
----------------------------------------------|
---------44-44-44--------66-66-66-66-66-666666|
-66-66-66--------22-22-22---------------------|

PRE-CHORUS

G-------------------|
D-------------------|
A-------------------|
E--66-66-66-66-6-6--|

ENDING

G---------------------------------------------|
D---------------------------------------------|
A----------------------------66666666---------|
E--66666666-44444444-22222222--------66-66-66-|
Автор: muzzon