Gitarizm

» Тексты и аккорды к песням для гитары » Zebrahead - Veils And Visions (табулатура)

Гитаризм

Конкурс на лучший кавер
Здесь могла бы быть Ваша реклама!
Хотите узнать как играть на гитаре? Гитаризм — лучший самоучитель гитары для начинающих!

Zebrahead - Veils And Visions (табулатура)


#This file is the author's own work and represents their interpretation of the song. You
only use this file for private study, scholarship, or research.#

Zebrahead - Veils and visions tabs


Intro:
  Guitar 1(rythm)
    |----------------------------|
    |----------------------------|
    |7-7-----7-7-----------------|
    |7-7-----7-7-----5-5-----7-7-|
    |5-5-----5-5-----5-5-----7-7-|
    |5-5-----5-5-----3-3-----5-5-|

    |--------------------------------|
    |--------------------------------|
    |7-7-7-7-7-7-7-7-----------------|
    |7-7-7-7-7-7-7-7-5-5-5-5-7-7-7-7-|
    |5-5-5-5-5-5-5-5-5-5-5-5-7-7-7-7-|
    |5-5-5-5-5-5-5-5-3-3-3-3-5-5-5-5-|

  Guitar 2(lead)

    |------------------|
    |------------------|
    |------------------|   x8
    |-----------7-4----|
    |-----5-454--------|
    |------------------|


Verse:
  Guitar 1
    |--------------------------------------------|
    |--------------------------------------------|
    |7-7-7-7-----7-7-7-7-------------------------|
    |7-7-7-7-----7-7-7-7-----5-5-5-5-----5-5-5-5-|
    |5-5-5-5-----5-5-5-5-----5-5-5-5-----5-5-5-5-|
    |5-5-5-5-----5-5-5-5-----3-3-3-3-----3-3-3-3-|

Pre-Chorus:
  Guitar 1
    |--------------------------------------------------|
    |--------------------------------------------------|
    |--------------------------------2-2-2-2-2-2-2-2-2-|
    |2-2-2-2-2-2-2-2-2-2-2-2-2-2-2-2-2-2-2-2-2-2-2-2-2-|
    |2-2-2-2-2-2-2-2-2-2-2-2-2-2-2-2-0-0-0-0-0-0-0-0-0-|
    |0-0-0-0-0-0-0-0-0-0-0-0-0-0-0-0-------------------|

Chorus:
  Guitar 1
    |----------------------------------------------------------------|
    |----------------------------------------------------------------|
    |7-7-7-7-7-7-7-7---------------------------------2-2-2-2-2-2-2-2-|
    |7-7-7-7-7-7-7-7-5-5-5-5-5-5-5-5-2-2-2-2-2-2-2-2-2-2-2-2-2-2-2-2-|
    |5-5-5-5-5-5-5-7-5-5-5-5-5-5-5-5-2-2-2-2-2-2-2-2-0-0-0-0-0-0-0-0-|
    |5-5-5-5-5-5-5-5-3-3-3-3-3-3-3-3-0-0-0-0-0-0-0-0-----------------|

  Guitar 2
    |----------------------------------------|
    |15-------12-10----15-------17-15-14-----|
    |---14----------------14-----------------|    x2
    |------12-------12-------12--------------|
    |----------------------------------------|
    |----------------------------------------|

  Guitar 1
    |------------------------------------------------|
    |------------------------------------------------|
    |------------------------------------------------|
    |5-5-5-7-7-7-2-2-5-5-5-7-7-2-2-2-5-5-5-7-7-2-2-2-|
    |5-5-5-7-7-7-2-2-5-5-5-7-7-2-2-2-5-5-5-7-7-2-2-2-|
    |3-3-3-5-5-5-0-0-3-3-3-5-5-0-0-0-3-3-3-5-5-0-0-0-|

  Guitar 2
    e|---17---17---17---17---|
    B|-----------------------|  x3
    G|14---14---14---14------|

  Guitar 1
    |--------------------------------|
    |--------------------------------|
    |----------------2-2-2-2-2-2-2-2-|
    |2-2-2-2-2-2-2-2-2-2-2-2-2-2-2-2-|
    |2-2-2-2-2-2-2-2-0-0-0-0-0-0-0-0-|
    |0-0-0-0-0-0-0-0-----------------|

Intro

Verse

Pre-Chorus

Chorus

Bridge:
  Guitar 1
   |-------------------------------------------------------------------|
   |-------------------------------------------------------------------|
   |7-7-7-7-7-7-7-7-7-7-7-7-7-7-7-7------------------------------------|
   |7-7-7-7-7-7-7-7-7-7-7-7-7-7-7-7-5-5-5-5-5-5-5-5-7-7-7-7-7-7-7-7----|   x2
   |5-5-5-5-5-5-5-5-5-5-5-5-5-5-5-5-5-5-5-5-5-5-5-5-7-7-7-7-7-7-7-7----|
   |5-5-5-5-5-5-5-5-5-5-5-5-5-5-5-5-3-3-3-3-3-3-3-3-5-5-5-5-5-5-5-5----|

Intro |
      |
Chorus| -> These last 3 parts are not exactly played as written above, but with little 
but
      |    with little modifications, but you can figure it out alone ;)
Intro |

Tabbed by Itch
:)
Автор: muzzon