Gitarizm

Гитаризм

Конкурс на лучший кавер
Здесь могла бы быть Ваша реклама!
Хотите узнать как играть на гитаре? Гитаризм — лучший самоучитель гитары для начинающих!

Zebrahead - Two Wrongs Dont Make A Right But Three Rights Make A Left (табулатура)


key: 
h= hammer on
p= pull off
/= slide up
^( ) =  bend string to note indicated in ( )


I learned this by ear,  but it sounds as close to the original as I can get it.


eb|-7------------------------------------|
Bb|---5-0-7-0-0-4-0-0-5-0-0-9-0-7-0------|
Gb|--------------------------------------|{play twice}
Db|--------------------------------------|
Ab|--------------------------------------|
Eb|--------------------------------------|



eb|-7------------------------------------|
Bb|---5-0-7-0-0-5-0-0-4-0-0-5-0-4-0------|
Gb|--------------------------------------|   
Db|--------------------------------------|
Ab|--------------------------------------|
Eb|--------------------------------------|




eb|-9------------------------------------|
Bb|---5-0-7-0-0-5-0-0-4-0-0-5---5^(7)----|
Gb|--------------------------------------|   
Db|--------------------------------------|
Ab|--------------------------------------|
Eb|--------------------------------------|




eb|-7------------------------------------|
Bb|---5-0-7-0-0-5-0-0-4-0-0-5-0-4-0------|
Gb|--------------------------------------|   
Db|--------------------------------------|
Ab|--------------------------------------|
Eb|--------------------------------------|




eb|-5p4p0------7------9--9/11------------|
Bb|------5p4p0----7----------------------|
Gb|--------------------------------------|   
Db|--------------------------------------|
Ab|--------------------------------------|
Eb|--------------------------------------|
Автор: muzzon