Gitarizm

» Тексты и аккорды к песням для гитары » Zebrahead - Subtract You bass (табулатура)

Гитаризм

Конкурс на лучший кавер
Здесь могла бы быть Ваша реклама!
Хотите узнать как играть на гитаре? Гитаризм — лучший самоучитель гитары для начинающих!

Zebrahead - Subtract You bass (табулатура)


-------------------------------------------------------------------------------
Subtract You - Zebrahead
-------------------------------------------------------------------------------

'Subtract You' Bass Tab
http://www.zebrahead.org

Chorus / Intro

g----------------------------------------------------------------|
d-------------(4-444-444444)-------------------2-2-2-2-2-2-2-2-2-|
a-2-222-2222222---------------4-4-4-4-4-4-4-4-4------------------|
e--------------2-222-222222--------------------------------------|

Verse (Beginning)

g-----------------------------------------------------------------|
d------------------22222------------------------------------------|
a-22222-----------------------------22222-------------------------|
e--------------------------------------------------22222----------|

Verse Pt. II

g-----------------------------------------------------------------|
d-----------------22222---22222-----------------------------------|
a-22222---22222-------------------22222---22222-------------------|
e-------------------------------------------------22222---22222---|

guitar solo section
(WHole notes)
              (Sub this bar with this on the second time
g---|---|---|-----|
d---|-2-|---|-----|
a-2-|---|-2-|-----|
e-------|---|(-2-)|   e-22222222
Автор: muzzon