Gitarizm

Гитаризм

Конкурс на лучший кавер
Здесь могла бы быть Ваша реклама!
Хотите узнать как играть на гитаре? Гитаризм — лучший самоучитель гитары для начинающих!

Zebrahead - Strength bass (табулатура)


Drop D Tuning: D,A,D,G

Opening
G-----------------------I
D-----------------------I
A------------------0~---I
D---0~---0~---0~--------I

Verse #2
G-----2-0-2-4---------2-0-2-4---------I
D---0---------2-4-2-0---------2-4-2---I
A-------------------------------------I
D-------------------------------------I

Verse #2
G-----------------------------------I
D---00-0-----------00-0-------------I
A--------22-2-----------22-2--------I
D-------------55-5-----------55-5---I

Chorus
G------------------------------------------------------------------------------I
D---0000000000000000-------------------0000000000000000------------------------I
A--------------------22222222---------------------------22222222----00-22-33---I
D-----------------------------55555555---------------------------55------------I

Bridge #2
G--------------------------------------------------------------------------------I
D-----------------0000000000000000-------------------0000000000000000------------I
A----------------------------------22222222---------------------------22222222---I
D---0---0---0---0---------------------------55555555-----------------------------I

Ending
G----------------------------------------------------------------------------------------------------I
D---0-0-0-0-0-0-0-0-----------------0-0-0-0-0-0-0-0-----------------0000-0000-000--------------------I
A-------------------2-2-2-2-------------------------2-2-2-2-----------------------2222---------------I
D---------------------------5-5-5-5-------------------------5-5-5-5-----------------------5555-555---I

Opening      x1
Verse #1     x2
Verse #2     x2
Verse #1     x4
Chorus       x2
Verse #1     x1
Verse #2     x2
Verse #1     x4
Chorus       x2
Verse #2     x1
Chorus       x1
Bridge #2    x1
Chorus       x2
Ending       x1
Автор: muzzon