Gitarizm

» Тексты и аккорды к песням для гитары » Zebrahead - Rescue Me bass (табулатура)

Гитаризм

Конкурс на лучший кавер
Здесь могла бы быть Ваша реклама!
Хотите узнать как играть на гитаре? Гитаризм — лучший самоучитель гитары для начинающих!

Zebrahead - Rescue Me bass (табулатура)


Riff
G-----------------------------------------------------------------------------------------------|
D---4-44------2-22-0-0000-4-44------2-22-0-0000-4-44------2-22-0-0000---------------------------|
A--------0-00------------------0-00------------------0-00---------------------------------------|
E-------------------------------------------------------------------------22222222-00000000-----|

Verse
G-------------------------------------------------------------------------------------------|
D---4444------2222-0000-4444------2222-0000-44444------2222-0000----------------0000--------|
A--------0000----------------0000-----------------0000----------------0000------------------|
E----------------------------------------------------------------2222------0000-------------|
Bridge
G-----------2-------------------------|
D------4-2~------4-2-2-0-0-000--------|
A---4~--------4~----------------------|
E-------------------------------------|

Chorus #1
G-----------------------------2---2-1---------------------------4---4-2-1--------|
D--------------------00000000---0----------------------22222222---2--------------|
A-------------------------------------0000000000000000---------------------------|
E---2222222222222222-------------------------------------------------------------|

Chorus #2
G-----------------------------2---2-1--------------------------------------------|
D--------------------00000000---0-----4------------------2222222222222222--------|
A---------------------------------------0000000000000000-------------------------|
E---2222222222222222-------------------------------------------------------------|

Bridge #2
G---------------------------------------------------------------|
D---------------------------------------------------------------|
A---------------------------------------------------------------|
E---2-22-22-00-00-2-22-22-00-00-2-22-22-00-00-2-22-22-00--------|

Bridge #3
G------------------------------------2-22-2-22-11----------|
D--------------0-00-0-000-2-22-2-222--------------4--------|
A---4-44-4-444---------------------------------------------|
E----------------------------------------------------------|

Riff           x1
Verse          x2
Bridge         x1
Chorus #1      x1
Chorus #2      x1
Riff           x1
Verse          x2
Bridge         x1
Chorus #1      x1
Chorus #2      x1
Bridge #2      x1
Bridge #3      x1
Guitar Intro - No bass
Chorus #1      x1
Chorus #2      x1
Riff           x1 End on F# and let it ring
Автор: muzzon