Gitarizm

» Тексты и аккорды к песням для гитары » Zebrahead - Real Me bass (табулатура)

Гитаризм

Конкурс на лучший кавер
Здесь могла бы быть Ваша реклама!
Хотите узнать как играть на гитаре? Гитаризм — лучший самоучитель гитары для начинающих!

Zebrahead - Real Me bass (табулатура)


-------------------------------------------------------------------------------
The Real Me - Zebrahead
-------------------------------------------------------------------------------

Zebrahead
"The Real Me"
Tabbed By Adam

T = Slap
P = Pop

Intro/Verse
G------------5---4-----4-------4----|
D-----2-----------------------------|
A----------x---x-----2---2---2---2--| (x6)
E--0--------------------------------|
   T  P    T P T P   T P T   T P T

Pre-Chorus ("And I get mine...")
G--------------------------------------|
D--------------------------------------|
A--------------------------------------|
E--5555-5555-5555-555-5556-55-5555-555-|

Verse (x4)

Chorus ("There's only 1 girl...")
G--------------------------|
D--------------------------|
A--3333--5555--------2222--| (x7)
E--------------3333--------|

G--------------|
D--------------|
A--3333--5555--|
E--------------|

Intro/Verse (x6)

Pre-Chorus

Chorus (First part x7, Second part x1)

Guitar Solo (wait for the bass to kick in...then)
G-----------------|
D-----------------|
A------3-2-----2--| (x4)
E--0--------------|

Then play Chorus behind the solo

Intro/Verse (x6)

Pre-Chorus

Chorus (First part x7, Second part x1)

End on:
G---|
D---|
A---|
E-3-|
Автор: muzzon