Gitarizm

Гитаризм

Конкурс на лучший кавер
Здесь могла бы быть Ваша реклама!
Хотите узнать как играть на гитаре? Гитаризм — лучший самоучитель гитары для начинающих!

Zebrahead - Postcards From Hell (табулатура)


-------------------------------------------------------------------------------
                             POSTCARDS FROM HELL - Zebrahead
-------------------------------------------------------------------------------
Tabbed by:Sherman Leung
Email:shermn2@aol.com
----Update 03/09/07----
Hey everybody, I figured the intro part out. The guy who said it sounded like tapping is
it is done in tapping. thing is, it starts from 3rd on the G string, then you have to
your little finger all the way to 8, then tap on 13, then do the same but with 10h12 on 
end note. which, is near enough impossible for me, so good luck with you guys.
----------------------------------------------------------

Tuning:Standard (E A D G B e)
Intro Riff
Guitar One
                     Eleven, not one
e|-----------------------------------|
B|---9--8--9--8--9--8--9--8--111111--|
G|--8--8--8--8--8--8--8--8--8--------|
D|-8--8--8--8--8--8--8--8--8---------|
A|-----------------------------------|
E|-----------------------------------|
Etc.

(Variation- sounds more like the recording, but a LOT harder)
start on 3, streeeetch with your little finger to 8, tap on 13. with the 10h12, I'm not
how to do it. you can slide it if you want it to sound slacky but whatever.
e|-----------------------------------|
B|-----------------------------------|
G|--3h8t13---3h8t10h12---------------|
D|-----------------------------------|
A|-----------------------------------|
E|-----------------------------------|
Etc.

Guitar Two
e|---------------------------------|
B|---------------------------------|
G|---------------5555--------------|
D|-----------11115555555566661111--|
A|-----------11113333555566661111--|
E|-----------1111----555566661111--|
Etc.

Verse Riff
Guitar One
e|-----------------------------------------------|
B|-----------------------------------------------|
G|--------5555------------------5555-6666--------|
D|-1111---555555556666---1111---5555-6666--1111--|
A|-1111---333355556666---1111---3333-4444--1111--|
E|-1111-------55556666---1111--------------1111--|
Etc.

Guitar Two Joins in, Same as Guitar One, but Guitar two alters it and goes:

e|-----------------------------------------------|
B|-----------------------------------------------|
G|-8888---5555------------8888--5555-6666--------|
D|-8888---555555556666----8888--5555-6666--1111--|
A|-6666---333355556666----6666--3333-4444--1111--|
E|------------55556666---------------------1111--|

Pre-Chorus/Verse Ending
(Both Guitars)
e|-------------------|
B|-------------------|
G|-------------------|
D|--------6666-8888--|
A|--------6666-8888--|
E|--------6666-8888--|

Chorus
Both Guitars
e|----------------------------------|
B|----------------------------------|
G|-88888888-------55555555----------|
D|-8888888855555555555555566666666--|
A|-6666666655555553333333366666666--|
E|---------5555555--------66666666--|
Repeat, End last Chord with just one strum

Repeat above again

Solo.   (All are double-digited numbers)
Guitar one
e|-----------------------------------------------|
B|-----------------------------------------------|
G|---15~--15-15^-12~-1212^--------12-12h13~------|
D|------------------------13~13-15----------15~--|
A|-----------------------------------------------|
E|-----------------------------------------------|

e|-------------------------------------------------------------------16~----------|
B|--------------13----14B==16-14B16----------------------------13--15-------------|
G|-12-13-15~-15----15--------------15-12~-------12----12-13-15--------------------|
D|----------------------------------------13-15----15-----------------------------|
A|--------------------------------------------------------------------------------|
E|--------------------------------------------------------------------------------|

Guitar Two
(Strum fast, you'll know when to change)
e|--------------------------|
B|--------------------------|
G|----------------3---------|
D|-5----6----1----3---------|
A|-3Etc.6----1Etc.1Etc.-----|
E|------6Etc.1--------------|
Repeat once.

You know when to pickslide on the next bit and the rest is just the riffs I've shown 
again.
Have fun, scince it's a frackin' good song!

| /  slide up
|   slide down
| h  hammer-on
| p  pull-off
| ~  vibrato
| +  harmonic
| x  Mute note
===============================================================================
Автор: muzzon