Gitarizm

» Тексты и аккорды к песням для гитары » Zebrahead - Postcards From Hell bass (табулатура)

Гитаризм

Конкурс на лучший кавер
Здесь могла бы быть Ваша реклама!
Хотите узнать как играть на гитаре? Гитаризм — лучший самоучитель гитары для начинающих!

Zebrahead - Postcards From Hell bass (табулатура)


Standard Tuning (E,A,D,G)
Artist: Zebrahead
Song: Postcards From Hell
Tabbed by: mafyoo


Intro   No Bass

Then Ater Drum Fill
G|-----------------------------------------------------------------|
D|-----------------------------------------------------------------|
A|-777777774444----7777777744445555777777774444----0000000022222222|
E|-------------4444----------------------------4444----------------|


Verse
No Bass

Then

G|--------------------------------------------------------------------|
D|--------------------------------------------------------------------|
A|----7777----44------7777----44--55--7777----44------0000000022222222|
E|----------------44------------------------------44------------------|


Chorus 

G|-------------------------------------66------66------------------------|
D|-----------------------------------66--66--66--66----------------------|
A|-7777777777777777----------------44------44----------------------------|
E|-----------------4444444444444444----------------5555555555555555555555|

G|-----------------------------------------------|
D|-----------------------------------------------|
A|-7777777777777777----------------444422221111--|
E|-----------------4444444444444444------------5|

Bridge
G|-----------------------------------------------------------------|
D|-----------------------------------------------------------------|
A|-777777774444----7777777744445555777777774444----0000000022222222|
E|-------------4444----------------------------4444----------------|

Verse

G|---------------------------------------------------------------|
D|-2222222222222222222222222222222222222222222222----------------| 
A|-----------------------------------------------0000000022222222|
E|---------------------------------------------------------------|

Then

G|--------------------------------------------------------------------|
D|--------------------------------------------------------------------|
A|----7777----44------7777----44--55--7777----44------0000000022222222|
E|----------------44------------------------------44------------------|

Chorus 

G|-------------------------------------66------66------------------------|
D|-----------------------------------66--66--66--66----------------------|
A|-7777777777777777----------------44------44----------------------------|
E|-----------------4444444444444444----------------5555555555555555555555|

G|-----------------------------------------------|
D|-----------------------------------------------|
A|-7777777777777777----------------444422221111--|
E|-----------------4444444444444444------------5|

Solo After Drum Fill

G|-----------------------------------------------------------------|
D|-----------------------------------------------------------------|
A|-4444444444444444--------------------------------2222222233333333|       
E|-----------------55555555555555550000000000000000----------------|    

G|-----------------------------------------------------------------|
D|-----------------------------------------------------------------|
A|-4444444444444444--------------------------------2222222222222222|       
E|-----------------55555555555555550000000000000000----------------|


Bridge

G|-----------------------------------------------------------------|
D|-----------------------------------------------------------------|
A|-777777774444----7777777744445555777777774444----0000000022222222|
E|-------------4444----------------------------4444----------------|

Chorus 

G|-----------------------------------------------------------------------|
D|-----------------------------------------------------------------------|
A|-7-7-7-7-7-7-7-7-----------------4-4-4-4-4-4-4-4-----------------------|
E|-----------------4-4-4-4-4-4-4-4-----------------5-5-5-5-5-5-5-5-5-5-5-|

G|------------------------------------------------|
D|------------------------------------------------|
A|-7-7-7-7-7-7-7-7-----------------4-4-4-4-4-4----|
E|-----------------4-4-4-4-4-4-4-4-------------5-5|
                 
Then
G|-------------------------------------66------66------------------------|
D|-----------------------------------66--66--66--66----------------------|
A|-7777777777777777----------------44------44----------------------------|
E|-----------------4444444444444444----------------5555555555555555555555|

G|-----------------------------------------------|
D|-----------------------------------------------|
A|-7777777777777777----------------444422221111--|
E|-----------------4444444444444444------------5|


End

 G|--------|
 D|--------|
 A|--77777|
 E|--------|
Автор: muzzon