Gitarizm

Гитаризм

Конкурс на лучший кавер
Здесь могла бы быть Ваша реклама!
Хотите узнать как играть на гитаре? Гитаризм — лучший самоучитель гитары для начинающих!

Zebrahead - Playmate Of The Year bass (табулатура)


Band: Zebrahead
Song: Playmate Of The Year
Album: Playmate Of The Year
Tab By: GdRATMc22ZHdNOFX@aol.com

This tab is 100% correct, don't look at any one else's version, this is the 
correct way of playing "Playmate Of The Year". This is a very easy song 
though, you really don't need a tab. Listen to the song to see when to play 
the parts, you should figure it out for yourself, if you can't, I wrote it 
anyway.

Intro/Chorus

D/--------------------------------------
A/-7-7----------------------------------
E/-----5-5-7-7-7-7-7-7-7-7-----------

Verse/Rap Part

D/------9-------------------------------------
A/-7-7---7-------7----------9---(rest)---9-
E/-----------5-5----5--7-7----7-(rest)7---7

Pre-Chorus/Post Chorus/Guitar Solo

D/---------------------------------------------------------------------------------
A/-7-7-7-7-7-7-7-7-------------------------------------------------------------
E/------------------------7-7-7-7-7-7-7-7-5-5-5-5-5-5-5-5-7-7-7-7-7-7-7-7-

If you have any questions about this tab...email me at 
GdRATMc22ZHdNOFX@aol.com
Автор: muzzon