Gitarizm

Гитаризм

Конкурс на лучший кавер
Здесь могла бы быть Ваша реклама!
Хотите узнать как играть на гитаре? Гитаризм — лучший самоучитель гитары для начинающих!

Zebrahead - Now Or Never (табулатура)


Artist: Zebrahead
Song: Now Or Never
Album: Playmate of the Year
E-Mail: beefynerd@www.com
Tabbed by Jeremy Burgess

Heres another great Zebrahead song tabbed by me.

Intro (guitar one) and chorus:

E|----------------------------
B|----------------------------
G|-----8-8-8-3-3----------
D|-5-5-8-8-8-3-3-3-3-3---
A|-5-5-6-6-6-1-1-3-3-3---
E|-3-3-----------1-1-1---

Intro (guitar two):

E|-------------------------------------------10-8-----15-13-10-10-11---
B|-8-8-6-8-8-6-8-8-11-10-6-6-8-8-6-8-8-6-8-8------8-8------------------
G|---------------------------------------------------------------------
D|---------------------------------------------------------------------
A|---------------------------------------------------------------------
E|---------------------------------------------------------------------

E|-10-8-10---------------------------
B|---------6-8-8-6-8-8-6-8-8-6-8-8---
G|-----------------------------------
D|-----------------------------------
A|-----------------------------------
E|-----------------------------------

Post-chorus ("take away from me.")

E|-----------------------
B|-----------------------
G|-----3-3---------6-7---
D|-5-5-3-3-3-3-3-3-6-7---
A|-5-5-1-1-3-3-3-3-4-5---
E|-3-3-----1-1-1-1-------

I have no idea how to do the solo, but besides that, thats the whole song.  E-mail me if you have any questions.
Автор: muzzon