Gitarizm

Гитаризм

Конкурс на лучший кавер
Здесь могла бы быть Ваша реклама!
Хотите узнать как играть на гитаре? Гитаризм — лучший самоучитель гитары для начинающих!
Загрузка...

Zebrahead - Mike Dexter Is A God Mike Dexter Is A Role Model Mike Dexter Is An Asshole bass (табулатура)


Band:  zebrahead
Album: phoenix 
Song: mike dexter is a god, mike dexter is a role model, 
      mike dexter is an asshole

please rate
coments and corrections welcome

Intro

G|----------------------------------|
D|----------------------------------|
A|---------22-2-2-244-4-4-4---------|
E|-00-0-0-0----------------55-5-5-5-|

G|----------------------------------|
D|----------------------------------|
A|---------22-2-2-244-4-4-4------7-|
E|-00-0-0-0----------------55-5-5---|

Verse 0:14

G|----------------------------------|
D|-------------421-----64-----------| 
A|-----20--22-2---444-4--76----754--| x2
E|-00-0--42----------------55-5---7-|

Pre-chorus 0:27

G|----------------------------------|
D|---14--14--14--14-64--64--64--64--| 
A|--2---2---2---2--4--4---64--4---6-|
E|-4-------4------------------------|

G|----------------------------------|
D|---14--14--14--14-64--64--42--42--| 
A|--2---2---2---2--4--4---62--2---4-|
E|-4-------4------------------------|

Chorus 0:39

G|----------------------------------|
D|----------------------------------| 
A|---------2-2-2-2-4-4-4-4----------| x2
E|-0-0-0-0-----------------5-5-5-5--|

Repeat:

Verse 0:53
Intro 1:05
Verse 1:18
Pre-chorus 1:31
Chorus 1:43
Verse 1:57

Pre-chorus 2:10 (I haven
Автор: muzzon