Gitarizm

Гитаризм

Конкурс на лучший кавер
Здесь могла бы быть Ваша реклама!
Хотите узнать как играть на гитаре? Гитаризм — лучший самоучитель гитары для начинающих!

Zebrahead - Karma Flavored Whiskey (табулатура)


Band:   Zebrahead
Song:   Karma Flavored Whiskey
Album:  Broadcast to the World

Tabbed by: Anthony Calderone

Intro
Keyboard notes go  G#  A# B F#  B A# E  A# B F#  B A# 3 times

Transferred into guitar would be:
-17--19-20-15--20-19-13--19-20-15--20-19-------|
-----------------------------------------------|
-----------------------------------------------|
-----------------------------------------3x----|
-----------------------------------------------|
-----------------------------------------------|

Intro: Guitar 1
---------------------------------------------------------------------|
---------------------------------------------------------------------|
---------------------------------------------------------------------|
-----9-----9-----9-----9------9---9---9---9-----9---9---9---9--------|
-11-11-11-11-11-11-11-11----9-9-9-9-9-9-9-9---7-7-7-7-7-7-7-7--------|
---------------------------9-----------------------------------------|

-------------------------------|
-------------------------------|
-------------------------------|
----9---9---9---9----x3--------|
--8-8-8-8-8-8-8-8--------------|
-------------------------------|


Pre-Verse: Guitar 2
------------------|
(let-it-ring)-----|
------------------|
-6~---------------|
-6~---------------|
-4~---------------|

Pre-Verse: Guitar 1
-777-999----------777-999-----------------|
---------888-999----------888-999---------|
------------------------------------------|
------------------------------------2x----|
------------------------------------------|
------------------------------------------|


Verse: Guitar 2
-------------------------------|
-------------------------------|
---------------------------4x--|
-66--66-5-66--9/5/6-66---------|
-66--66-5-66--9/5/6-66---------|
-44--44-3-44--7/3/4-44---------|

Verse: Guitar 1
-----------------------------------|
--9--------------------------------|
-13--------------------------------|
--you-play-this-a-bunch-of-times---|
-----------------------------------|
-----------------------------------|
After you play this three times you play the same verse as guitar 2


Pre-Chorus: Both Guitars
-you-play-this-a-bunch-of-------|
-times-(palm-muted)-------------|
--------------------------------|
-6666---------------------------|
-6666---------------------------|
-4444---------------------------|
This part is really disorted, i'm not sure its correct.


Chorus: Both Guitars
---------------------------------------------|
---------------------------------------------|
------------------------------------------2x-|
-99999999-6666-2222---99999999-6666-4444-----|
-99999999-6666-2222---99999999-6666-4444-----|
-77777777-4444-0000---77777777-4444-2222-----|

Verse

Pre-Chorus

Chorus

Solo: Guitar 1
-161616-121212-151515-121212---------------------------------|
-----------------------------131313-161616-111111--999-------|
-------------------------------------------------------------|
---------------------------------------------------------3x--|
-------------------------------------------------------------|
-------------------------------------------------------------|
I can't figure out the entire solo but heres one part of it

Solo: Guitar 2
------------------------------:-------------------------------------|
------------------------------:-------------------------------------|
------------------------------:-------------------------------------|
-6-6--6-6-6-6--666-9-5----2x--:-99999999999999-666666-222222--------|
-6-6--6-6-6-6--666-9-5--------:-99999999999999-666666-222222--------|
-4-4--4-4-4-4--444-7-3--------:-77777777777777-444444-000000--------|

---------------------------------------|
---------------------------------------|
----------------------------------2x---|
-99999999999999-666666-444444----------|
-99999999999999-666666-444444----------|
-77777777777777-444444-222222----------|


Interlude:Both Guitars   (Out come the Wolves!)
-------------------------------|
-------------------------------|
--------------------------4x---|
-6-6--6-6-6-6-666-9-5----------|
-6-6--6-6-6-6-666-9-5----------|
-4-4--4-4-4-4-444-7-3----------|

Bridge: Guitar 2
----------------------------|
----------------------------|
----------------------------|
-9-6-5--9-6-5--9-6-5--------|
-9-6-5--9-6-5--9-6-5--------|
-7-4-3--7-4-3--7-4-3--------|

Bridge: Guitar 1
-------------------------------------------------------------|
-----------------------9-9-9-9-9-9-9-9-9-9-9-9-9-9-9-9-------|
----------------------13131313131313131313131313131313-------|
-9-6-5--9-6-5--9-6-5-----------------------------------------|
-9-6-5--9-6-5--9-6-5-----------------------------------------|
-7-4-3--7-4-3--7-4-3-----------------------------------------|

Chorus

Intro

Pre-Verse Guitar 2

Enjoy!!!!!!!!!
Автор: muzzon