Gitarizm

» Тексты и аккорды к песням для гитары » Zebrahead - Just The Tip bass (табулатура)

Гитаризм

Конкурс на лучший кавер
Здесь могла бы быть Ваша реклама!
Хотите узнать как играть на гитаре? Гитаризм — лучший самоучитель гитары для начинающих!

Zebrahead - Just The Tip bass (табулатура)


Band: zebrahead
Album: phoenix
Song: just the tip

Tabbed in standard but should really be tuned down
therefore there are a few notes payed an octave higher
if you want the drop d version gimme a message

Intro 0:09

G|----------------------------------|
D|-1111111--------------------------| 
A|--------2-2222222-----------------| x2
E|-----------------2-222224-4444444-|

G|----------------------------------|
D|----------------------------------| 
A|-6.-------------------------------|
E|----------------------------------|

Verse 0:22

G|----------------------------------|
D|---886688--886688--668899--668899-| 
A|66------66-----------------------| x4
E|-----------------77------66-------|

Pre-chorus

G|----------------------------------|
D|----------------------------------| 
A|-6.----------------------66666666-|
E|----------------------------------|

Chorus 0:46

G|-------------------------------6--|
D|---------88886-----------88889----| 
A|-66666666------9------------------|
E|-----------------77777777---------|

G|----------------------------------|
D|----------------------------------| 
A|---------66664--------------------|
E|-44444444------7-7-77777777777777-|

G|-------------------------------6--|
D|---------88886-----------88889----| 
A|-66666666------9------------------|
E|-----------------77777777---------|

G|----------------------------------|
D|----------------------------------| 
A|---------66664-----------66668-9--|
E|-44444444------7-7-777777---------|

Intro 1:04

G|----------------------------------|
D|-1111111--------------------------| 
A|--------2-2222222-----------------| x2
E|-----------------2-222224-4444444-|

G|----------------------------------|
D|----------------------------------| 
A|-6.-------------------------------|
E|----------------------------------|

Verse 1:17

G|----------------------------------|
D|---886688--886688--668899--668899-| 
A|66------66-----------------------| x4
E|-----------------77------66-------|

Pre-chorus 1:36

G|----------------------------------|
D|----------------------------------| 
A|-6.----------------------66666666-|
E|----------------------------------|

Chorus 1:41

G|-------------------------------6--|
D|---------88886-----------88889----| 
A|-66666666------9------------------|
E|-----------------77777777---------|

G|----------------------------------|
D|----------------------------------| 
A|---------66664--------------------|
E|-44444444------7-7-77777777777777-|

G|-------------------------------6--|
D|---------88886-----------88889----| 
A|-66666666------9------------------|
E|-----------------77777777---------|

G|----------------------------------|
D|----------------------------------| 
A|---------66664-----------66668-9--|
E|-44444444------7-7-777777---------|


Bridge 2:02

G|/355535-35-35-355355535-35-35-355-|
D|----------------------------------| 
A|----------------------------------|
E|----------------------------------|

G|----------------------------------|
D|-------------------------88886644-| 
A|-666666666666666666666666---------|
E|----------------------------------|

G|/355535-35-35-355355535-35-35-355-|
D|----------------------------------| 
A|----------------------------------|
E|----------------------------------|

G|----------------------------------|
D|-----------------8888888888888888-| 
A|-6666666666666666-----------------|
E|----------------------------------|

Verse 2:22

G|----------------------------------|
D|---886688--886688--668899--668899-| 
A|66------66-----------------------| x4
E|-----------------77------66-------|

Pre-chorus

G|----------------------------------|
D|----------------------------------| 
A|-6.-------------------------------|
E|----------------------------------|

Chorus 2:41

G|-------------------------------6--|
D|---------88886-----------88889----| 
A|-66666666------9------------------|
E|-----------------77777777---------|

G|----------------------------------|
D|----------------------------------| 
A|---------66664-----------66668-9--|
E|-44444444------7-7-777777---------|

G|-------------------------------6--|
D|---------88886-----------88889----| 
A|-66666666------9------------------|
E|-----------------77777777---------|

G|----------------------------------|
D|----------------------------------| 
A|---------66664-----------66668-9--|
E|-44444444------7-7-777777---------|

Ending 3:01

G|----------------------------------|
D|-1111111--------------------------| 
A|--------2-2222222-----------------| x2
E|-----------------2-222224-4444444-|

G|----------------------------------|
D|----------------------------------| 
A|-66666.---------------------------|
E|----------------------------------|
Автор: muzzon