Gitarizm

Гитаризм

Конкурс на лучший кавер
Здесь могла бы быть Ваша реклама!
Хотите узнать как играть на гитаре? Гитаризм — лучший самоучитель гитары для начинающих!

Zebrahead - Into You bass (табулатура)


Standard Tuning: E,A,D,G

Chorus #1
G--------------------------------------------I
D--------------------------------------------I
A--------2222------0000------2222------0000--I
E---0000------2222------0000------2222-------I

Verse #1
G----------------------------------------------I
D-----------------00-------------------00------I
A--------------------00-------------------00---I
E---00------------------00---------------------I

Verse #2
G-------------------------------------------------------------------I
D---222222222222222222222222-00----222222222222222222222222-00------I
A-------------------------------00-----------------------------00---I
E-------------------------------------------------------------------I

Pre-Chorus
G-------------------------------------------------------I
D----------------00-----------------00------------------I
A-------------------00-----------------00000000---------I
E---000000000000-------000000000000-------------44-22---I

Chorus #2
G-----------------------------------------------------------------------------------I
D---22222222-11111111-------------------22222222-11111111---------------------------I
A---------------------44444444-22222222-------------------44444444-22222222-0~-2~---I
E-----------------------------------------------------------------------------------I

Bridge
G-------------------------------------------------------------------------------------------------I
D-----------------------------22222222----------------------------22222222-------------------2~---I
A--------------------44444444----------44444444-22222222-44444444----------00000000-22222222------I
E---000000000000-0-0------------------------------------------------------------------------------I

Verse #3
G-----------------------------------------------------------------------I
D---222222222222222222222222-00----222222222222222222222222-00----2-2---I
A-------------------------------00-----------------------------00-------I
E-----------------------------------------------------------------------I

Chorus #3
G-------------------------------------------------------------------------------------------I
D---22222222-11111111-------------------22222222-11111111-----------------------------------I
A---------------------44444444-22222222-------------------44444444-22222222-0~-2/14-0~-2~---I
E-------------------------------------------------------------------------------------------I

Chorus #1      x1
Verse #1       x1
Pre-Chorus     x1
Chorus #1      x2
Chorus #2      x1
Chorus #1      x1
Verse #2       x1
Pre-Chorus     x1
Chorus #1      x2
Chorus #2      x1
Bridge         x1
Guitar Solo
Verse #3       x1
Chorus #1      x2
Chorus #3      x1
Chorus #1      x1 At end, let E natural ring.
Автор: muzzon