Gitarizm

Гитаризм

Конкурс на лучший кавер
Здесь могла бы быть Ваша реклама!
Хотите узнать как играть на гитаре? Гитаризм — лучший самоучитель гитары для начинающих!

Zebrahead - House Is Not My Home (табулатура)


band- zebrahead
song- house is not my home
tabbed by- little one (aka jodie)

----------------------------------------------------------|
----------------------------------------------------------|
----------------------------------------------------------|
---9----------6-------------------------------------------|
---9----------6-------------------------------------------|
---7-- -------4-------------------------------------------|

  x14          x14

repeat that a few times then its..

----------------------------------------------------------|
----------------------------------------------------------|
----------------------------------------------------------|
---2------------------------------------------------------|
---2------------------------------------------------------|
---0------------------------------------------------------|

   x24

chorus-

-----------------------------------------------------------|
-----------------------------------------------------------|
-----------------------------------------------------------|
---9------6------14----------------------------------------|
---9------6------14----------------------------------------|
---7------4----- 12----------------------------------------|


the song is pretty much the same all the way through....have fun!
Автор: muzzon